Уважаемые пользователи, в данный момент ведутся работы по настройке мобильной версии сайта и поэтому часть функций не работает или работает не корректно.

- Город на Неве, аккорды

  • 12,408
  • 10
  • 29 марта 2016
Прокрутка
Тон-сть
Шрифт
Вступление:    
   Bm               A               Em  
E|--------0---------------0---------------0---------|  
B|------3-------3-------2-------2-------0-------0---|  
G|----4-------4---4---2-------2---2---0-------0---0-|  
D|--------------------------------------------------|  
A|--2---------------0-------------------------------|  
E|----------------------------------0---------------|  
  
   Bm              A               Em  
E|-------0---------------0---------------0----------|  
B|-----3-------3-------2-------2-------0-------0----|  
G|---4-------4---4---2-------2---2---0-------0---0--|  
D|--------------------------------------------------|  
A|-2---------------0--------------------------------|  
E|---------------------------------0----------------|  
  
   Bm  
E|-------0---------|  
B|-----3-------3---|  
G|---4-------4---4-|  
D|-----------------|  
A|-2---------------|  
E|-----------------|  
  
Куплет 1:  
   D               A               Bm  
E|-------3---------------0---------------0----------|  
B|-----2-------2-------2-------2-------4-------4----|  
G|---3-------3---3---2-------2---2---3-------3---3--|  
D|-0------------------------------------------------|  
A|-----------------0---------------2----------------|  
E|--------------------------------------------------|  
   Есть город на Неве, я там еще не разу не был.  
  
    Bm  
E|-------0----------  
B|-----4-------4----  
G|---3-------3---3--  
D|------------------  
A|-2----------------  
E|------------------  
  
  A                 Em              Bm  
E|--------0---------------0---------------0---------|  
B|------2-------2-------0-------0-------4-------4---|  
G|----2-------2---2---0-------0---0---3-------3---3-|  
D|--------------------------------------------------|  
A|-0--------------------------------2---------------|  
E|------------------0-------------------------------|  
   Есть город на Неве, я там бываю во сне.  
  
    Bm  
E|-------0---------|  
B|-----4-------4---|  
G|---3-------3---3-|  
D|-----------------|  
A|-2---------------|  
E|-----------------|  
  
    E               E               D  
E|--------0---------------0---------------3---------|  
B|------0-------0-------0-------0-------2-------2---|  
G|----1-------1---1---1-------1---1---3-------3---3-|  
D|----------------------------------0---------------|  
A|--------------------------------------------------|  
E|--0---------------0-------------------------------|  
    Санкт-Петербург, Петроград, Ленинград  
  
   D  
E|-------3---------|  
B|-----2-------2---|  
G|---3-------3---3-|  
D|-0---------------|  
A|-----------------|  
E|-----------------|  
  
   Em               A               Bm  
E|--------0---------------0---------------0---------|  
B|------0-------0-------2-------2-------4-------4---|  
G|----0-------0---0---2-------2---2---3-------3---3-|  
D|--------------------------------------------------|  
A|------------------0---------------2---------------|  
E|-0------------------------------------------------|  
      Разводные мосты, живые каменные львы.  
  
    Bm  
E|-------0---------|  
B|-----4-------4---|  
G|---3-------3---3-|  
D|-----------------|  
A|-2---------------|  
E|-----------------|  
  
    E               E               Bm  
E|--------0---------------0---------------0---------|  
B|------0-------0-------0-------0-------4-------4---|  
G|----1-------1---1---1-------1---1---3-------3---3-|  
D|--------------------------------------------------|  
A|----------------------------------2---------------|  
E|--0---------------0-------------------------------|  
    Зимним светом полярной звезды, отражением кладов  
  
   Bm  
E|-------0---------|  
B|-----4-------4---|  
G|---3-------3---3-|  
D|-----------------|  
A|-2---------------|  
E|-----------------|  
   со дна Невы  
  
    Em              Am              E  
E|--------0---------------0---------------0---------|  
B|------0-------0-------2-------2-------0-------0---|  
G|----0-------0---0---2-------2---2---1-------1---1-|  
D|--------------------------------------------------|  
A|------------------0-------------------------------|  
E|--0-------------------------------0---------------|  
    Звездный парад, мелодии белых ночей.  
  
   E  
E|-------0---------|  
B|-----0-------0---|  
G|---1-------1---1-|  
D|-----------------|  
A|-----------------|  
E|-0---------------|  
  
Припев:  
D           A  
Сказка во сне -   
Em         Bm  
Город на Неве.   
D           A  
Сказка во сне -   
Em         Bm  
Город на Неве.
  
Куплет 2:  
   D               A               Bm  
E|-------3---------------0---------------0----------|  
B|-----2-------2-------2-------2-------4-------4----|  
G|---3-------3---3---2-------2---2---3-------3---3--|  
D|-0------------------------------------------------|  
A|-----------------0---------------2----------------|  
E|--------------------------------------------------|  
   Есть город на Неве, ему от роду триста лет.  
  
    Bm  
E|-------0----------  
B|-----4-------4----  
G|---3-------3---3--  
D|------------------  
A|-2----------------  
E|------------------  
  
  A                 Em              Bm  
E|--------0---------------0---------------0---------|  
B|------2-------2-------0-------0-------4-------4---|  
G|----2-------2---2---0-------0---0---3-------3---3-|  
D|--------------------------------------------------|  
A|-0--------------------------------2---------------|  
E|------------------0-------------------------------|  
   Есть город на Неве, такого нет на всей земле.  
  
    Bm  
E|-------0---------|  
B|-----4-------4---|  
G|---3-------3---3-|  
D|-----------------|  
A|-2---------------|  
E|-----------------|  
  
    E               E               D  
E|--------0---------------0---------------3---------|  
B|------0-------0-------0-------0-------2-------2---|  
G|----1-------1---1---1-------1---1---3-------3---3-|  
D|----------------------------------0---------------|  
A|--------------------------------------------------|  
E|--0---------------0-------------------------------|  
    Санкт-Петербург, Петроград, Ленинград  
  
   D  
E|-------3---------|  
B|-----2-------2---|  
G|---3-------3---3-|  
D|-0---------------|  
A|-----------------|  
E|-----------------|  
  
   Em               A               Bm  
E|--------0---------------0---------------0---------|  
B|------0-------0-------2-------2-------4-------4---|  
G|----0-------0---0---2-------2---2---3-------3---3-|  
D|--------------------------------------------------|  
A|------------------0---------------2---------------|  
E|-0------------------------------------------------|  
      Город герой, во славу царей и вождей.  
  
    Bm  
E|-------0---------|  
B|-----4-------4---|  
G|---3-------3---3-|  
D|-----------------|  
A|-2---------------|  
E|-----------------|  
  
    E               E               Bm  
E|--------0---------------0---------------0---------|  
B|------0-------0-------0-------0-------4-------4---|  
G|----1-------1---1---1-------1---1---3-------3---3-|  
D|--------------------------------------------------|  
A|----------------------------------2---------------|  
E|--0---------------0-------------------------------|  
    Зимним светом полярной звезды, отражением кладов  
  
   Bm  
E|-------0---------|  
B|-----4-------4---|  
G|---3-------3---3-|  
D|-----------------|  
A|-2---------------|  
E|-----------------|  
   со дна Невы  
  
    Em              Am              E  
E|--------0---------------0---------------0---------|  
B|------0-------0-------2-------2-------0-------0---|  
G|----0-------0---0---2-------2---2---1-------1---1-|  
D|--------------------------------------------------|  
A|------------------0-------------------------------|  
E|--0-------------------------------0---------------|  
    Звездный парад, мелодии белых ночей.  
  
   E  
E|-------0---------|  
B|-----0-------0---|  
G|---1-------1---1-|  
D|-----------------|  
A|-----------------|  
E|-0---------------|  

Припев:  
D           A  
Сказка во сне -   
Em         Bm  
Город на Неве.   
D           A  
Сказка во сне -   
Em         Bm  
Город на Неве.
  
   D               A               Bm  
E|-------3---------------0---------------0----------|  
B|-----2-------2-------2-------2-------4-------4----|  
G|---3-------3---3---2-------2---2---3-------3---3--|  
D|-0------------------------------------------------|  
A|-----------------0---------------2----------------|  
E|--------------------------------------------------|  
   Есть город на Неве, я там еще ни разу не был.  
  
    Bm  
E|-------0----------  
B|-----4-------4----  
G|---3-------3---3--  
D|------------------  
A|-2----------------  
E|------------------  
  
  A                 Em              Bm  
E|--------0---------------0---------------0---------|  
B|------2-------2-------0-------0-------4-------4---|  
G|----2-------2---2---0-------0---0---3-------3---3-|  
D|--------------------------------------------------|  
A|-0--------------------------------2---------------|  
E|------------------0-------------------------------|  
   Есть город на Неве, я там бываю во сне.  
  
    Bm  
E|-------0---------|  
B|-----4-------4---|  
G|---3-------3---3-|  
D|-----------------|  
A|-2---------------|  
E|-----------------|  

  A                 Em              Bm  
E|--------0---------------0---------------0---------|  
B|------2-------2-------0-------0-------4-------4---|  
G|----2-------2---2---0-------0---0---3-------3---3-|  
D|--------------------------------------------------|  
A|-0--------------------------------2---------------|  
E|------------------0-------------------------------|  
   ...я там бываю во сне... бываю во сне...
  
    Bm  
E|-------0---------|  
B|-----4-------4---|  
G|---3-------3---3-|  
D|-----------------|  
A|-2---------------|  
E|-----------------|  

  A                 Em              Bm  
E|--------0---------------0---------------0---------|  
B|------2-------2-------0-------0-------4-------4---|  
G|----2-------2---2---0-------0---0---3-------3---3-|  
D|--------------------------------------------------|  
A|-0--------------------------------2---------------|  
E|------------------0-------------------------------|  
 ...я там бываю во сне... во сне... там бываю во сне.
  
    Bm  
E|-------0---------|  
B|-----4-------4---|  
G|---3-------3---3-|  
D|-----------------|  
A|-2---------------|  
E|-----------------|  

Комментарий автора

В основном песня играется оригинальным перебором: бас -3-2-1- пауза -3-2-3. 

Аппликатуры аккордов

Аккорд Bm
Аккорд A
Аккорд Em
Аккорд D
Аккорд E
Аккорд Am

Видео 7Б Город на Неве

7Б популярные подборы аккордов

Название композицииПросмотров
7Б 5,530
7Б 2,865
7Б 1,355
7Б 1,104
7Б 838