Уважаемые пользователи, в данный момент ведутся работы по настройке мобильной версии сайта и поэтому часть функций не работает или работает не корректно.

Алиса - Веретено, аккорды

  • 14,622
  • 27
  • 14 фев. 2015
Прокрутка
Тон-сть
Шрифт
Куплет 1:
1|-17---15---17---15--------17---15---17---15------|
2|---------------------15-----------------------15-|
 
1|-13---11---13---11--------13---11---13---11------|
2|---------------------11-----------------------11-|

Gm  Cm   F       Dm
Облака гонит осень туман
Gm  Cm   F       Dm
Над водой золотой караван
Gm  Cm   F       Dm
По лесам заплутали дожди
Gm  Cm   F       Dm
С ними я, до капели не жди

Припев:
    Gm       Cm F(VIII)          Dm(V)
Опять игра, опять Кино, снова выход на бис.
    Gm       Cm F(VIII)          Dm(V)
Плетет судьбу веретено за четою кулис.
    Gm       Cm F(VIII)          Dm(V)
Когда-нибудь замедлить бег, и уже не спеша
    Gm       Cm F(VIII)     Dm(V)
Увидеть, как берет разбег душа.

Куплет 2:
1|--------------------------------5----3------|
2|--3---------------------------------------3-|
3|-------0----2----3----5----7----------------|

1|--5----3---------------------|
2|------------1---------1------|
3|-----------------3---------3-|

Gm  Cm   F       Dm
Снег летит, кружит время метель
Gm  Cm   F       Dm
Над землей белая канитель
Gm  Cm   F       Dm
По весне ливни ринуться в бой
Gm  Cm   F       Dm
С ними я возвращаюсь домой

Припев:
    Gm       Cm F(VIII)          Dm(V)
Опять игра, опять Кино, снова выход на бис.
    Gm       Cm F(VIII)          Dm(V)
Плетет судьбу веретено за четою кулис.
    Gm       Cm F(VIII)          Dm(V)
Когда-нибудь замедлить бег, и уже не спеша
    Gm       Cm F(VIII)     Dm(V)
Увидеть, как берет разбег душа.

Бридж:
1|-----|--5--|--3--|-----|-----|-----|--5--|--6--|--5--|
2|--3--|-----|-----|--3--|-----|--3--|-----|-----|-----|
3|-----|-----|-----|-----|--5--|-----|-----|-----|-----|

1|------10----8-------------------6----8----6-|
2|--8--------------8--------------------------|
3|----------------------7----8----------------|

Припев:
    Gm       Cm F(VIII)          Dm(V)
Опять игра, опять Кино, снова выход на бис.
    Gm       Cm F(VIII)          Dm(V)
Плетет судьбу веретено за четою кулис.
    Gm       Cm F(VIII)          Dm(V)
Когда-нибудь замедлить бег, и уже не спеша
    Gm       Cm F(VIII)     Dm(V)
Увидеть, как берет разбег душа.

Бридж 2: x2
1|-17---15---17---15--------17---15---17---15------|
2|---------------------15-----------------------15-|
 
1|-13---11---13---11--------13---11---13---11------|
2|---------------------11-----------------------11-|

Комментарий автора

Соло для припева: 3|-5--7--5--7--5--7--5--7-| Опять игра 3|-5--7--5--7--5--7--5--7-| Опять Кино 3|-5--7--5--7--5--7--5--7-| |-8--10--8--10--8--10--8--10-| Снова выход на бис

Аппликатуры аккордов

Аккорд Gm
Аккорд Cm
Аккорд F
Аккорд Dm
Аккорд F(VIII)
Аккорд Dm(V)

Видео Алиса Веретено

Алиса популярные подборы аккордов

Название композицииПросмотров
Алиса 4,405
Алиса 1,084
Алиса 867
Алиса 700
Алиса 438