Уважаемые пользователи, в данный момент ведутся работы по настройке мобильной версии сайта и поэтому часть функций не работает или работает не корректно.

Алиса - Мы вместе, аккорды

  • 5,410
  • 1
  • 23 мая 2015
Прокрутка
Тон-сть
Шрифт
Способ 1:
E|---------------|-----|-10-10-10~~---|--------------|
B|--10---10~~----|--10-|--------------|--------------|
G|---------------|-----|--------------|---7~~~~~~~~~-|
D|---------------|-----|--------------|---5~~~~~~~~~-|
A|---------------|-----|--------------|--------------|
E|---------------|-----|--------------|--------------|
 
Способ 2:
E|-5---5-----|--5--------|--10--10--10-|------|
B|-----------|-----------|-------------|------|
G|-----------|-----------|-------------|------|
D|-----------|-----------|-------------|---12-|
A|-----------|-----------|-------------|---10-|
E|-----------|-----------|-------------|------|

Аппликатуры аккордов

Видео Алиса Мы вместе

Алиса популярные подборы аккордов

Название композицииПросмотров
Алиса 3,890
Алиса 940
Алиса 836
Алиса 751
Алиса 449