Уважаемые пользователи, в данный момент ведутся работы по настройке мобильной версии сайта и поэтому часть функций не работает или работает не корректно.

Алиса - Мама, аккорды

  • 47,458
  • 110
  • 30 нояб. 1999
Прокрутка
Тон-сть
Шрифт
  Em           D                  Em
  На моей земле, видно, так повелось
                D            C           G
  Все не слава богу, все не так, как у всех
   Am        Em         C         G
  То ночами маемся, то засветло пьем
    Am           Em        D      Em
  Стороной взглянуть - и смех и грех }x2

           Am               C     G D Em
           Ой, мама, мама, больно мне... }x2

  Em           D                  Em
  На моей земле каждый в правде ослеп.
                D            C           G
  Брат на брата прет, сын отца тянет в блуд
   Am        Em         C        G
  На моей земле вместо колоса серп,
    Am           Em        D      Em
  Вместо солнца дым, вместо воли хомут. }x2

Припев:
      Am                   C                 G       D        Em    |
     -------------------------------------------------------------  |
     -------------------------------------------------------------  |
     -2-------------2--4-5-7------7p5-7p5--------7-------7--------  |
     -2-------------2--4-5-7------7p5-7p5----5-----5-5/4---4---2--  | x2
     -0--------------------------------------------------------2--  |
     ----------------------------------------------------------0--  |
      Ой, мама, мама,     больно мне...                            _|

  Em           D                  Em
  Так за веком век, ни кола, ни двора.
                D            C  G
  От тюрьмы - сума на стыке эпох.
   Am        Em         C         G
  В драке не поможем, но случись война
    Am           Em        D      Em
  Даст бог победим, победим даст бог. }x2

Припев:
      Am                   C                 G       D        Em    |
     -------------------------------------------------------------  |
     -------------------------------------------------------------  |
     -2-------------2--4-5-7------7p5-7p5--------7-------7--------  |
     -2-------------2--4-5-7------7p5-7p5----5-----5-5/4---4---2--  | x2
     -0--------------------------------------------------------2--  |
     ----------------------------------------------------------0--  |
      Ой, мама, мама,     больно мне...                            _|

    E5         D5        D5     E5(VII)
  А у земли одно имя - Светлая Русь.
     E5(VII)   D5      C5       G5
  В ноги поклонись, назови ее "мать".
   A5(V)        E5(VII) C5       G5
  Мы ж младенцы все у нее на груди
     A5(V)     E5(VII)    D5       E5(VII)
  Сосунки, щенки, нам ли мамку спасать. }x2

Припев:
      Am                   C                 G       D        Em    |
     -------------------------------------------------------------  |
     -------------------------------------------------------------  |
     -2-------------2--4-5-7------7p5-7p5--------7-------7--------  |
     -2-------------2--4-5-7------7p5-7p5----5-----5-5/4---4---2--  | x2
     -0--------------------------------------------------------2--  |
     ----------------------------------------------------------0--  |
      Ой, мама, мама,     больно мне...                            _|

Соло на баяне:
    E5       B5  E5       B5  A5            E5   A5           E5
  --7------------7-7------------------------------------------------------
  ------10-8-7-------10-8-7-----7-8--7h8p7-----------------------7--8--10-
  ----------------------------9------------9---------------9--9-----------
  -------------------------------------------9---7--9--10-----------------
  ------------------------------------------------------------------------
  ------------------------------------------------------------------------

    E5           B5       E5       B5  A5      E5  A5            E5
  --7---8-7---------------7-7----------------8-7---12-12------------------
  ----------10-8-7---8-10-----10-8-7-----7-8-------------12-12------------
  -------------------------------------9-----------------------9-9--------
  ------------------------------------------------------------------------
  ------------------------------------------------------------------------
  ------------------------------------------------------------------------

    E5         D5        D5     E5(VII)
  А на часах уже без пятнадцати три.
     E5(VII)   D5      C5       G5
  Время, как река, - не воротишь назад.
   A5(V)        E5(VII) C5       G5
  А ты хоть раз попробуй оглянись, посмотри,
     A5(V)     E5(VII)    D5       E5(VII)
  Что сумел, что сделал, и кто этому рад. }x2

Припев:
      Am                   C                 G       D        Em    |
     -------------------------------------------------------------  |
     -------------------------------------------------------------  |
     -2-------------2--4-5-7------7p5-7p5--------7-------7--------  |
     -2-------------2--4-5-7------7p5-7p5----5-----5-5/4---4---2--  | x2
     -0--------------------------------------------------------2--  |
     ----------------------------------------------------------0--  |
      Ой, мама, мама,     больно мне...                            _|

Соло на баяне:
    E5           B5       E5          B5  A5       E5  A5        E5
  --7---8-7---------------7-7---7------------------7---10-8-7----7--------
  ----------10-8-7---8-10-----10-10-8-7-----7-8-10------------10----------
  ----------------------------------------9-------------------------------
  ------------------------------------------------------------------------
  ------------------------------------------------------------------------
  ------------------------------------------------------------------------

Соло на гитаре:
  ------------------------------------------------------------------------
  ------------------------------------------------------------------------
  -----------------------------16~--14-12-11--11>(12)>11----16~--14-12-11-
  --------------------12h14h16---------------------------12---------------
  -----------12h14h15-----------------------------------------------------
  -/12h14h15--------------------------------------------------------------

  ------------------------------------------------------------------------
  ------------------------------------------------------------------------
  -11>(12)>11-------------------------------------------------------------
  ------------12--/14---14-12------------12-14---14-12--------------------
  ----------------------------14---12h14---------------14-----------------
  ------------------------------------------------------------------------

          w/bar
  -------------------------------------------------15>(17)-15>(17)-(17)---
  --15>(17)~~~--(17)>15p12------------------------------------------------
  -------------------------14-14>(16)>14-12-------------------------------
  ------------------------------------------------------------------------
  ------------------------------------------------------------------------
  ------------------------------------------------------------------------

  -(17)>15p12-------------------------------------------------------------
  ------------15p12-15>(17)-(17)>15--15>(17)~~~--(17)>15p12---------------
  ----------------------------------------------------------14-14>(16)>14-
  ------------------------------------------------------------------------
  ------------------------------------------------------------------------
  ------------------------------------------------------------------------

  -----------------------------------------
  ---------------12--13--12h13p12-----17~--
  -12~~--12--14-------------------14-------
  -----------------------------------------
  -----------------------------------------
  -----------------------------------------

Аппликатуры аккордов

Аккорд Em
Аккорд D
Аккорд C
Аккорд G
Аккорд Am
Аккорд E5
Аккорд D5
Аккорд E5(VII)
Аккорд C5
Аккорд G5
Аккорд A5(V)
Аккорд B5
Аккорд A5

Видео Алиса Мама

Алиса популярные подборы аккордов

Название композицииПросмотров
Алиса 4,278
Алиса 991
Алиса 869
Алиса 711
Алиса 514