Уважаемые пользователи, в данный момент ведутся работы по настройке мобильной версии сайта и поэтому часть функций не работает или работает не корректно.

Алиса - Тоталитарный рэп, аккорды

  • 5,004
  • 6
  • 02 авг. 2016
Прокрутка
Тон-сть
Шрифт
 По таблатуре играть медиатором:
 E |-------------------------------------------------------------|
 B |-------------------------------------------------------------|
 G |-------------------------------------------------------------|
 D |-4-4-|4-4-4-4|--4-4--|4-4-4-4|-------------------------------|
 A |-2-2-|2-2-2-2|--2-2--|2-2-2-2|-0-0--4-4--7-7--4-4--0--|7-7|--|
 E |------------------------------------------------------|5-5|--|

(Continued)
 E |-------------------------------------------------------------|
 B |-------------------------------------------------------------|
 G |-------------------------------------------------------------|
 D |-----|-------|-----|-------|---------------------------------|
 A |-5-5-|5-5-5-5|-5-5-|5-5-5-5|---------1-1-4-4/9-9-7-7-5-5-4-4-|
 E |-3-3-|3-3-3-3|-3-3-|3-3-3-3|-2-2-4-4-------------------------|

      Bm 
Тоталитарный рэп - это Вам не ха-ха
      A(V)
Тоталитарный рэп - это факт
      G(III)
Тоталитарный рэп сформирован годами
      F# 
Под вой сирен и лай собак

Тоталитарный рэп - это вариант реконструкции церкви под склад
Тоталитарный рэп - это танец шаг вперед, два шага назад
Тоталитарный рэп - это эквилибр
Тоталитарный рэп - это акт
Тоталитарный рэп -
           это абстрактный пряник и совершенно конкретный кулак
Тоталитарный рэп - это эксперимент по перестройке сознания масс
Тоталитарный рэп - это ласковый голос:"Предьявите Ваш аусвайс"

Раз, два ..., тыр-тыр-тыр
Раз, два ..., новый командир

Тоталитарный рэп - это аквариум для тех кто когда-то любил океан
Тоталитарный рэп - это зоопарк, если за решеткой ты сам
Тоталитарный рэп - это аукцЫон, где тебя покупают, тебя продают
Тоталитарный рэп - это джунгли, в которых, как ни странно, живут
Тоталитарный рэп - это телевизор, он правит нами,
                                                он учит нас жить
Тоталитарный рэп - это кино, но о кино я не могу говорить
Тоталитарный рэп - это игры под током, этакий брейк-данс
Тоталитарный рэп - это дискотека,
                           где крутят свои диски пулеметчик Ганс

Раз, два ..., тыр-тыр-тыр
Раз, два ..., новый командир

Тоталитарный рэп, старый как мир, атракцион но он жив и теперь.
и комнату смеха от камеры пыток до сих пор отделяет дверь
и гласность имеет свой собственный голос,
                             но за гласностью внегласный надзор
и если тебя выбирают мишенью, то стреляют точно в упор
Тоталитарный рэп - всего лишь модель общества глухонемых
A если они вдобавок плохо видят, то это только лучше для них
Вы скажете мне: "Что за поза? Вы, батенька, максималист!"
Я отвечу Вам: "Что Вы, мой фюрер, Я просто антифашист!"

Раз, два ..., тыр-тыр-тыр
Раз, два ..., новый командир

Раз, два ..., тыр-тыр-тыр
Раз, два ..., у нас новый командир

Аппликатуры аккордов

Аккорд E
Аккорд B
Аккорд G
Аккорд D
Аккорд A
Аккорд Bm
Аккорд A(V)
Аккорд G(III)
Аккорд F#

Видео Алиса Тоталитарный рэп

Алиса популярные подборы аккордов

Название композицииПросмотров
Алиса 4,405
Алиса 1,084
Алиса 867
Алиса 700
Алиса 438