Уважаемые пользователи, в данный момент ведутся работы по настройке мобильной версии сайта и поэтому часть функций не работает или работает не корректно.

Алиса - Инок, воин и шут, аккорды

Прокрутка
Тон-сть
Шрифт
x2:
B)--5--------------5-------------------------------
G)----5--7---7--7----5---4----5----------4--------
D)7-------------------------7----7---7-------5---7
A)--------------------------------------8-------7--

Am(V)
Благослови на войну,
Em(VII)
Дом сохрани и спаси.
F(V)
Так собирались в поход
C(VIII) G(VII) 
Ратные люди Руси.

Am(V)
Так, от начала времен,
Em(VII)
Солдату дана благодать,
F(V)
С Богом надежнее жить,
C(VIII) G(VII)
С Богом легко умирать.

x4
A)0-5-3--3--5--2--3-2--2-3-0--7-5-5-7--0--5--3

След звезды пылит по дорогам,
На душе покой и тихая грусть.
Испокон веков граничит с Богом
Моя Светлая Русь.

х2
E)--0-----------------------------------------------
B)------3-1--3-1------3--1-0--1-0-------3--1-0--1-0
G)2--------------2-0--------------0-0-------------

E)------3-5--3-5--3-5-----------3--5--5-------
B)--------------------5-3-----1----------2-2---
G)0-2-----------------------2-----------------

Am(V)
Сколько раздоров и смут
Em(VII)
Ведала Родина-мать,
F(V)
Как нас хотели согнуть,
C(VII) G(VII)
Как нас пытались ломать.

Am(V)
Сколько шакалов да псов
Em(VII)
Скалятся с разных сторон
F(V)
На золото наших хлебов,
C(VII) G(VII)
На золото наших икон.

x4
A)0-5-3--3--5--2--3-2--2-3-0--7-5-5-7--0--5--3

След звезды пылит по дорогам,
На душе покой и тихая грусть.
Испокон веков граничит с Богом
Моя Светлая Русь.

G)--4---------------------------4--5---4------------
D)7----7-5-----------5-----5~7-------7----7-5---5-7
A)----------7--5--7-----7----------------------7----

Am(V)
Что собирали отцы,
Em(VII)
Нас научили беречь
F(V)
Вера родной стороны,
C(VII) G(VII)
Песня, молитва да меч.

Am(V)
Так повелось от корней,
Em(VII)
Ратную службу несут,
F(V)
Всяк на своем рубеже,
C(VII) G(VII)
Инок, воин и шут.

x4
A)0-5-3--3--5--2--3-2--2-3-0--7-5-5-7--0--5--3

След звезды пылит по дорогам,
На душе покой и тихая грусть.
Испокон веков граничит с Богом
Моя Светлая Русь.

х3 (один раз не доиграть)
G)--4---------------------------4--5---4------------
D)7----7-5-----------5-----5~7-------7----7-5---5-7
A)----------7--5--7-----7----------------------7---- 

Комментарий автора

Ритм 134 Для большей достоверности песне аккорды играть на указанных ладах (желательно на электрогитаре) 

Аппликатуры аккордов

Аккорд Am(V)
Аккорд Em(VII)
Аккорд F(V)
Аккорд C(VIII)
Аккорд G(VII)
Аккорд C(VII)

Видео Алиса Инок, воин и шут

Алиса популярные подборы аккордов

Название композицииПросмотров
Алиса 3,890
Алиса 940
Алиса 836
Алиса 751
Алиса 449