Уважаемые пользователи, в данный момент ведутся работы по настройке мобильной версии сайта и поэтому часть функций не работает или работает не корректно.

Алиса - Моя война, аккорды

Прокрутка
Тон-сть
Шрифт
Вступление:
Riff 1:
e||------------------------------------------------|
B||------------------------------------------------|
G||------------------------------------------------|
D||-2--5-2-5---7--8-7-8-7-5---2--5-2-5---4--5-4-5-2|
A||-2--5-2-5---7--8-7-8-7-5---2--5-2-5---4--5-4-5-2|
E||-0--3-0-3---5--6-5-6-5-3---0--3-0-3---2--3-2-3-0|

e||----------------------------------------------------||
B||----------------------------------------------------||
G||----------------------------------------------------||
D||5-5-5-2--5-2-5---7--8-7-8-7-5---2--5-2-5---4--5-4-2-||
A||5-5-5-2--5-2-5---7--8-7-8-7-5---2--5-2-5---4--5-4-2-||
E||3-3-3-0--3-0-3---5--6-5-6-5-3---0--3-0-3---2--3-2-0-||

Riff 2:
e||------------------------------|
B||------------------------------|
G||------------------------------|
D||-5-5-5-5-5--4---5-5-5-5-5--4-2|
A||-5-5-5-5-5--4---5-5-5-5-5--4-2| 
E||-3-3-3-3-3--2---3-3-3-3-3--2-0|

e||------------------------------|
B||------------------------------|
G||---------------------------7-9|
D||5-5-5-5-5--4---5-5-5-5-5---7-9|
A||5-5-5-5-5--4---5-5-5-5-5---7-9| 
E||3-3-3-3-3--2---3-3-3-3-3------|
 
e||-----------------------------------------|
B||-----------------------------------------|
G||-----------------------------------------|
G||12-12-12-12-12--11--12-12-12-12-12--12-11|
D||12-12-12-12-12--11--12-12-12-12-12--12-11|
A||10-10-10-10-10---9--10-10-10-10-10--10--9|
 
e||---------------------------------------|
B||---------------------------------------|
G||---------------------------------------|
G||12-12-12-12-12--11--12-12-12-12-12--7-9|
D||12-12-12-12-12--11--12-12-12-12-12--7-9|
A||10-10-10-10-10---9--10-10-10-10-10--5-7|

Em              G                 Em  G  
Если свет, который во мне, - есть тьма,  
Em              G Em G  
То какова тогда тьма?
Em                   G Em G  
Я худое око без ночи и дня,                                
Em                G Em G  
Сам себе позор и тюрьма.
Em                     G Em G  
Помыслами путан, пороками мят,
Em                G Em G  
Перепачкан пеной молвы,
Em                         G Em G  
Я засохший корень, запекшийся яд
Em                   G Em G  
В стеблях перепрелой ботвы.

Riff 1:
e||------------------------------------------------|
B||------------------------------------------------|
G||------------------------------------------------|
D||-2--5-2-5---7--8-7-8-7-5---2--5-2-5---4--5-4-5-2|
A||-2--5-2-5---7--8-7-8-7-5---2--5-2-5---4--5-4-5-2|
E||-0--3-0-3---5--6-5-6-5-3---0--3-0-3---2--3-2-3-0|

e||----------------------------------------------------||
B||----------------------------------------------------||
G||----------------------------------------------------||
D||5-5-5-2--5-2-5---7--8-7-8-7-5---2--5-2-5---4--5-4-2-||
A||5-5-5-2--5-2-5---7--8-7-8-7-5---2--5-2-5---4--5-4-2-||
E||3-3-3-0--3-0-3---5--6-5-6-5-3---0--3-0-3---2--3-2-0-||
Жизнь.Смерть. Моя война

Em              G              Em G  
Зависть да крамола, похоть да лень,
Em              G  Em G  
Пеленают душу в тартар.
Em              G           Em G  
Я жевал покорно страстей дребедень,
Em              G   Em G  
Да глушил гордыни отвар.
Em              G               Em G 
Сколько не кривляйся, сколько не лги,
Em              G       Em G  
Чуриками вечность не взять,
Em              G     Em G 
Тухлые болота сжимают круги,
Em              G  Em G  
Хохотом заходится тать.

	Bb                 B
	Краснобаи глотки драли
	C              D                                      
	Искушали не видеть в небе огня,
	Bb                     B
	Совесть спесью растлевали,
	C                    D
	Подстрекали превозносить свое я.

Riff 2:
e||------------------------------|
B||------------------------------|
G||------------------------------|
D||-5-5-5-5-5--4---5-5-5-5-5--4-2|
A||-5-5-5-5-5--4---5-5-5-5-5--4-2| 
E||-3-3-3-3-3--2---3-3-3-3-3--2-0|

e||------------------------------|
B||------------------------------|
G||---------------------------7-9|
D||5-5-5-5-5--4---5-5-5-5-5---7-9|
A||5-5-5-5-5--4---5-5-5-5-5---7-9| 
E||3-3-3-3-3--2---3-3-3-3-3------|
 
e||-----------------------------------------|
B||-----------------------------------------|
G||-----------------------------------------|
G||12-12-12-12-12--11--12-12-12-12-12--12-11|
D||12-12-12-12-12--11--12-12-12-12-12--12-11|
A||10-10-10-10-10---9--10-10-10-10-10--10--9|
 
e||---------------------------------------|
B||---------------------------------------|
G||---------------------------------------|
G||12-12-12-12-12--11--12-12-12-12-12--7-9|
D||12-12-12-12-12--11--12-12-12-12-12--7-9|
A||10-10-10-10-10---9--10-10-10-10-10--5-7|
Жизнь. Смерть. Моя война

Em              G              Em G  
Я один из тысяч в движении ко дну,
Em              G    Em G  
В танце суматошного дня.
Em              G               Em G  
Я толком никогда не глядел в пустоту
Em              G         Em G  
И пустота вгляделась в меня,
Em              G              Em G  
Из вранья был слеплен почестей ком,
Em              G Em G  
Матом урезонили шах.
Em              G                 Em  G  
Кто в жизни утверждался «подкидным дураком»,
Em              G      Em G  
К финишу пришел в дураках.

Riff 2:
e||------------------------------|
B||------------------------------|
G||------------------------------|
D||-5-5-5-5-5--4---5-5-5-5-5--4-2|
A||-5-5-5-5-5--4---5-5-5-5-5--4-2| 
E||-3-3-3-3-3--2---3-3-3-3-3--2-0|

e||------------------------------|
B||------------------------------|
G||---------------------------7-9|
D||5-5-5-5-5--4---5-5-5-5-5---7-9|
A||5-5-5-5-5--4---5-5-5-5-5---7-9| 
E||3-3-3-3-3--2---3-3-3-3-3------|
 
e||-----------------------------------------|
B||-----------------------------------------|
G||-----------------------------------------|
G||12-12-12-12-12--11--12-12-12-12-12--12-11|
D||12-12-12-12-12--11--12-12-12-12-12--12-11|
A||10-10-10-10-10---9--10-10-10-10-10--10--9|
 
e||---------------------------------------|
B||---------------------------------------|
G||---------------------------------------|
G||12-12-12-12-12--11--12-12-12-12-12--7-9|
D||12-12-12-12-12--11--12-12-12-12-12--7-9|
A||10-10-10-10-10---9--10-10-10-10-10--5-7|
Жизнь. Смерть. Моя война

Em              G         Em G  
Время, как солома в топке печи,
Em              G       Em G  
Вспышка стала горсткой золы,
Em              G             Em G  
Там, где били звонко живые ключи,
Em              G   Em G  
Сквозняки считают углы.
Em              G            Em G  
Я молился жарко, глазами в глаза,
Em              G       Em G  
В небо душу плавил до дна:
Em              G                Em G  
Если свет, который во мне есть тьма, -
Em              G  Em G  
То какова тогда тьма? 

	Bb                 B
	Краснобаи глотки драли
	C              D                                      
	Искушали не видеть в небе огня,
	Bb                     B
	Совесть спесью растлевали,
	C                    D
	Подстрекали превозносить свое я.

Riff 1:
e||------------------------------------------------|
B||------------------------------------------------|
G||------------------------------------------------|
D||-2--5-2-5---7--8-7-8-7-5---2--5-2-5---4--5-4-5-2|
A||-2--5-2-5---7--8-7-8-7-5---2--5-2-5---4--5-4-5-2|
E||-0--3-0-3---5--6-5-6-5-3---0--3-0-3---2--3-2-3-0|

e||----------------------------------------------------||
B||----------------------------------------------------||
G||----------------------------------------------------||
D||5-5-5-2--5-2-5---7--8-7-8-7-5---2--5-2-5---4--5-4-2-||
A||5-5-5-2--5-2-5---7--8-7-8-7-5---2--5-2-5---4--5-4-2-||
E||3-3-3-0--3-0-3---5--6-5-6-5-3---0--3-0-3---2--3-2-0-||

Riff 2:
e||------------------------------|
B||------------------------------|
G||------------------------------|
D||-5-5-5-5-5--4---5-5-5-5-5--4-2|
A||-5-5-5-5-5--4---5-5-5-5-5--4-2| 
E||-3-3-3-3-3--2---3-3-3-3-3--2-0|

e||------------------------------|
B||------------------------------|
G||---------------------------7-9|
D||5-5-5-5-5--4---5-5-5-5-5---7-9|
A||5-5-5-5-5--4---5-5-5-5-5---7-9| 
E||3-3-3-3-3--2---3-3-3-3-3------|
 
e||-----------------------------------------|
B||-----------------------------------------|
G||-----------------------------------------|
G||12-12-12-12-12--11--12-12-12-12-12--12-11|
D||12-12-12-12-12--11--12-12-12-12-12--12-11|
A||10-10-10-10-10---9--10-10-10-10-10--10--9|
 
e||---------------------------------------|
B||---------------------------------------|
G||---------------------------------------|
G||12-12-12-12-12--11--12-12-12-12-12--7-9|
D||12-12-12-12-12--11--12-12-12-12-12--7-9|
A||10-10-10-10-10---9--10-10-10-10-10--5-7|
Жизнь. Смерть. Моя война

Аппликатуры аккордов

Аккорд Em
Аккорд G
Аккорд Bb
Аккорд B
Аккорд C
Аккорд D

Видео Алиса Моя война

Алиса популярные подборы аккордов

Название композицииПросмотров
Алиса 3,890
Алиса 940
Алиса 836
Алиса 751
Алиса 449