Уважаемые пользователи, в данный момент ведутся работы по настройке мобильной версии сайта и поэтому часть функций не работает или работает не корректно.
правильный подбор

Алиса - Дурак, аккорды

  • 16,917
  • 18
  • 11 июня 2007
Прокрутка
Тон-сть
Шрифт
Вступление: x4
           C       G               Am      Em
e|-3-2-0---0---0----------------------------------(0)---(0)-------|
B|-------3-------3-0------(0)--------0----------(0)------(0)------|
G|----------------------(0)--------2---2-0----------------(0)-----|
D|-----------------------------------------2----------------------|

Em
  Как-то раз по весне ранней
Em
  Поманила пожар-птица
Em
  На дороги земли дурня -
Em
  К солнцу тропы искать.

Проигрыш 1: x2
           C       G               Am      Em
e|-3-2-0---0---0----------------------------------(0)---(0)-------|
B|-------3-------3-0------(0)--------0----------(0)------(0)------|
G|----------------------(0)--------2---2-0----------------(0)-----|
D|-----------------------------------------2----------------------|

Em
  Над землей городов крыши,
Em
  А над крышами дым-сажа,
Em
  А над сажей - небес выше -
Em
  Солнца белая рать.

Проигрыш 2: x2
           Em              Am              Em              Am
e|-7-5-7-5-7---12------5-3-5---12------3-2-3---12------2-0-2---12-|
B|----------------------------------------------------------------|
G|----------------------------------------------------------------|

           C               Bm              Em
e|-----0---0---12--------------7---------------7------------------|
B|-------3-------------3-1-3-----------0---0----------------------|
G|---------------------------------------2------------------------|

Em
  Сколько горя в нужде дурень мыкал,
Em
  Износил сапогов сотни,
Em
  А рубах изодрал столько,
Em
  Сколько трав истоптал.

Em
  По лесам собирал сказки,
Em
  Да учился у птиц песням,
Em
  Веселил городов толпы,
Em
  Но ближе к солнцу не стал.

	Em
	Ох, тропинки-лесенки
	                      Am Bm
	Прямо по земле в небеса,
	Em
	Как найти, увидеть,
	                      Am Bm
	Да не проглядеть, не потерять.

 		 A          E
		 А у неба радости -
		         A             B           E
		 Только солнцу глянешь утром в глаза,
		 C             B
		 Отвернешь, укроешься,
		  C
		 Да слезою вспыхнешь опять.
		   Em
		 Опять!
		   Em
		 Вот так!
		   Em
		 В сказку словом льемся.
		   Em
		 Вот так!
		 B
		 Смеемся!

			         Em
			Ходит дурак по земле босиком,
			         Em
			Берегами рек да опушкой леса.
			 D         Em     Bm
			Веселит дурак почтенный народ
			  D         Em          Bm
			Все да по площадям городов.

				   Em
				И ты, как он, проходишь по земле,
				   Em
				Ему, как всем, тебе, как всем, от рода по судьбе.
				   Em
				Иди своей дорогой, ищи свою тропу,
				    B                                   Em
				Найдет дурак, найдешь и ты, даст Бог, и я найду.

		   Em
		 Вот так!
		   Em
		 В сказку словом льемся.
		   Em
		 Вот так!
		 B
		 Смеемся!

Em
  Это только присказка, а сказка бежит речкой,
Em
  Да дела не идут скоро.
Em
  Ближе к солнцу не стал дурень,
Em
  Но стал теплее сердцам.

Em
  Где бы он ни сложил песню,
Em
  Где бы ни проросло слово,
Em
  Стелет в небо из звезд тропы
Em
  По горячим следам.

Em
  Стелет сквозь городов крыши,
Em
  Выше крыш, да сквозь дым-сажу,
Em
  Стелет даже небес выше -
Em
  Солнца белая рать.

Проигрыш 2: x2
           Em              Am              Em              Am
e|-7-5-7-5-7---12------5-3-5---12------3-2-3---12------2-0-2---12-|
B|----------------------------------------------------------------|
G|----------------------------------------------------------------|

           C               Bm              Em
e|-----0---0---12--------------7---------------7------------------|
B|-------3-------------3-1-3-----------0---0----------------------|
G|---------------------------------------2------------------------|

Em
  Вот что сталось весной ранней -
Em
  Заманила пожар-птица
Em
  На дороги земли дурня -
     E       Em
  К солнцу тропы искать.

Кода: x4
           C       G               Am      Em
e|-3-2-0---0---0----------------------------------(0)---(0)-------|
B|-------3-------3-0------(0)--------0----------(0)------(0)------|
G|----------------------(0)--------2---2-0----------------(0)-----|
D|-----------------------------------------2----------------------|

Комментарий автора

Музыка и слова - Константин Кинчев и Андрей Шаталин. 1). Кода замедляется на двух последних аккордах. 2). Слова песни в исходном варианте имеют некоторые различия со словами из альбомной версии (приведенная подборка).

Аппликатуры аккордов

Аккорд C
Аккорд G
Аккорд Am
Аккорд Em
Аккорд Bm
Аккорд A
Аккорд E
Аккорд B
Аккорд D

Видео Алиса Дурак

Алиса популярные подборы аккордов

Название композицииПросмотров
Алиса 4,335
Алиса 1,050
Алиса 871
Алиса 707
Алиса 447