Уважаемые пользователи, в данный момент ведутся работы по настройке мобильной версии сайта и поэтому часть функций не работает или работает не корректно.
правильный подбор

Алиса - Горько, аккорды

  • 44,983
  • 68
  • 03 янв. 2008
Прокрутка
Тон-сть
Шрифт
Вступление: x2
   Em              G                               Em
B|-------------------------------------------------------0-------------|
G|-----------------------------------------------2-------0-------------|
D|-----2-0-------------------0---2---------0-2-------------------------|
A|-----------2-------------0-------------0-----------------------------|
E|-0---------------3---3-3-------------3---------------0---------------|

       Em       Em7    Em
Мхами кутал нетвердый шаг
       Em       Em7    Em
Синий вереск в сухом бору,
        Am       D      G
Где плутала всю ночь душа,
       Am6    Dsus4 D Em
Да казнила себя к утру,

       Em       Em7   Em
Что желаньями растеклась,
       Em       Em7 Em
К ступе ладила помело,
        Am       D      G
По глаза закопалась в грязь
       Am6    Dsus4 D Em
От отчаянья, всем назло.

Припев:
	 Am
	Горько
	 D                G
	мутным держать ответ,
	 Am
	Там, где
	 Dsus4    D      Em
	видишь себя в лицо.
	   Am
	Страшно
	 Dsus4        D     G
	вымолвить – Смерти нет!
	 Am
	Коль на
	 Dsus4  D      Em
	пальце ее кольцо.

Проигрыш = вступление: x2
   Em              G                               Em
B|-------------------------------------------------------0-------------|
G|-----------------------------------------------2-------0-------------|
D|-----2-0-------------------0---2---------0-2-------------------------|
A|-----------2-------------0-------------0-----------------------------|
E|-0---------------3---3-3-------------3---------------0---------------|

       Em   Em7 Em
Оторочены облака
       Em       Em7 Em
Бледно-розовой кисеей.
        Am     D   G
От далека, до далека,
       Am6    Dsus4 D Em
Небо дышит сырой землей,

       Em       Em7 Em
И тревожит огнями даль,
       Em       Em7    Em
Что, как свечки, колышет лес.
        Am     D  G
Отлетает душа-печаль
       Am6    Dsus4 D Em
Птицей серою в дым небес.

Припев:
	 Am
	Горько
	 D                G
	мутным держать ответ,
	 Am
	Там, где
	 Dsus4    D      Em
	видишь себя в лицо.
	   Am
	Страшно
	 Dsus4        D     G
	вымолвить – Смерти нет!
	 Am
	Коль на
	 Dsus4  D      Em
	пальце ее кольцо.

       Em       Em7    Em
Когда тень превратится в дух,
       Em       Em7    Em
Когда пламенем станет взор,
        Am       D    G
На заре промолчит петух,
       Am6    Dsus4 D Em
Принимая зарю в укор.

       Em       Em7  Em
Успокоится плачем страх,
       Em       Em7   Em
Растворится в любви вина,
        Am      D   G
И оттает душа в слезах,
       Am6    Dsus4 D Em
Понимая, что прощена.

Припев:
	 Am
	Горько
	 D                G
	мутным держать ответ,
	 Am
	Там, где
	 Dsus4    D      Em
	видишь себя в лицо.
	   Am
	Страшно
	 Dsus4        D     G
	вымолвить – Смерти нет!
	 Am
	Коль на
	 Dsus4  D      Em
	пальце ее кольцо.

Кода = вступление: x4
   Em              G                               Em
B|-------------------------------------------------------0-------------|
G|-----------------------------------------------2-------0-------------|
D|-----2-0-------------------0---2---------0-2-------------------------|
A|-----------2-------------0-------------0-----------------------------|
E|-0---------------3---3-3-------------3---------------0---------------|

Комментарий автора

mp3: http://alisa-live.narod.ru/audio/Alisa-Gorko.mp3

Аппликатуры аккордов

Аккорд Em
Аккорд G
Аккорд Em7
Аккорд Am
Аккорд D
Аккорд Am6
Аккорд Dsus4

Видео Алиса Горько

Алиса популярные подборы аккордов

Название композицииПросмотров
Алиса 3,945
Алиса 948
Алиса 863
Алиса 698
Алиса 428