Уважаемые пользователи, в данный момент ведутся работы по настройке мобильной версии сайта и поэтому часть функций не работает или работает не корректно.

Алиса - Дождь и я, аккорды

Прокрутка
Тон-сть
Шрифт
Вступление: 
            Em           G            D                    D
B)-2-0-2-0-2-0---4----------4--4-2-0-2---4--4-2-0-2--2-----------
G)-------------------4-5--------------------------------5-4------
D)------------------------5--------------------------------------

   Em         G
Вечер возник, день отутюжил
   Am             Em
Пыльные складки двора.
   Em          G
Дождь, как и я, ночью по лужам
   Am           D
Будет бродить до утра.

   Em         G
В окна стучать, чтобы кому-то
   Am             Em
Стало чуть легче дышать,
   Em         G
Чтобы к утру все по минутам
   Am           D
Городу пересказать.

               Em      G
   От слова к слову лететь,
     Am             D
   Песней растаять в дали.
             Em       G
   Надеждой в солнце согреть –
     D
   Все, что мы могли.

Проигрыш:
            Em           G            D                    D
B)-2-0-2-0-2-0---4----------4--4-2-0-2---4--4-2-0-2--2-----------
G)-------------------4-5--------------------------------5-4------
D)------------------------5--------------------------------------

   Em         G
Город исчез, в дальние дали
   Am           Em
Вывели тропы дождя.
   Em         G
В край, где грозу песней считали,
   Am           D
В край, где учили меня,

           Em       G
  Кострами плавить зорю,
    Am              D
  Ветром раскрасить угли,
             Em      G
  Расправить крылья огню –
   D
  Все, что мы могли.

Соло:
E)--------------------------------------------------------------------
B)---------8-10-----------------------------7-8-----------------------
G)-------9------9----------7--------------7-----7----9-7----9-7-------
D)--7-10----------7------9--10-9--------9----------------10-----10-9--
A)------------------9-10----------10-10-----------10------------------
                          
E)7-----------7-----------7-------------------------------------------
B)-8-10-7-8-10-8-10-7-8-10-8-10-7-8-7-----7-8-10-8-7-------8-10-8-----
G)---------------------------------9-7-9-9----------9-7-7-9------9-7--
D)------------------------------------9----------------9------------10
A)--------------------------------------------------------------------
                         
E)7-----------7-----------7-10--7---------7----7----7----7----
B)-8-10-7-8-10-8-10-7-8-10----10-8-10-7-8--8-10-8-10-8-10-8-10
G)---------------------------------------9--------------------

E)10-7-8-10-7-8-10-7-8-10-7-8-10
B)------------------------------
G)------------------------------

   Em         G
Скоро рассвет, сумрак окрашен
   Am             Em
Розово - белой каймой,
   Em         G
Луч очертил контуры башен,
   Am           D
Нам возвращаться домой.

           Em       G
  В поступках небо узнать,
    Am              D
  Выйти в проступках в нули,
           Em       G
  К основе силу собрать –
   D
  Все, что мы могли. 

Проигрыш:
            Em           G            D                    D
B)-2-0-2-0-2-0---4----------4--4-2-0-2---4--4-2-0-2--2-----------
G)-------------------4-5--------------------------------5-4------
D)------------------------5--------------------------------------

Комментарий автора

Вариантов боя может быть масса - кому как больше нравится. Вступление к песне можно сыграть нотами, а вот проигрыши между куплетами удобнее играть аккордами. 

Аппликатуры аккордов

Аккорд Em
Аккорд G
Аккорд D
Аккорд Am

Видео Алиса Дождь и я

Алиса популярные подборы аккордов

Название композицииПросмотров
Алиса 3,945
Алиса 948
Алиса 863
Алиса 698
Алиса 428