Уважаемые пользователи, в данный момент ведутся работы по настройке мобильной версии сайта и поэтому часть функций не работает или работает не корректно.
правильный подбор

Алиса - Пасынок звезд, аккорды

  • 15,568
  • 11
  • 17 сент. 2011
Прокрутка
Тон-сть
Шрифт
Вступление: Dm7 Am/C B Asus4
1|---------5---0---------------------------------------
2|-----6---------5-----6--5--3-------3-----------------
3|-------5---------0-----------3-------0---------------
4|---0---------------7-----------3-------0-------------
5|---------------------------------1-------0---8--7--5-
6|-----------------------------------------------------

1|---8--5-----5--8----------------5--3--5-
2|---6--5--8--5--5---6--8--6------3-------
3|---------7-----------------7----5-------
4|----------------------8-----------------
5|----------------------------------------
6|----------------------------------------

Потом следует переход:
1|-------------------0-            
2|--------3--------3---           
3|------0--------0-----           
4|----3--------0-------           
5|--1------------------           
6|---------------------           
 
       Dm Am/C B (Bmaj7)         
От земли имя принять
A7        Dm7 Am/C B Asus4
и оставить дом,
       Dm Am/C B (Bmaj7)         
До небес ладить костры
A7      Dm7 Am/C B Asus4
по седым ручьям,

       Dm Am/C B (Bmaj7)         
Ворожить словом грозу
A7     Dm7 Am/C B Asus4
и услышать гром,
       Dm Am/C B (Bmaj7)         
Да глядеть солнцу в лицо,
A7        Dm7 Am/C B Asus4
как в глаза друзьям.

       Dm Am/C B (Bmaj7)         
По ночам бредить луной
A7        Dm7 Am/C B Asus4
да перечить сну,
       Dm Am/C B (Bmaj7)         
На заре выплеснуть боль
A7      Dm7 Am/C B Asus4
алым облакам,

       Dm Am/C B (Bmaj7)         
По земле песней лететь
A7      Dm7 Am/C B Asus4
от окна к окну,
       Dm Am/C B (Bmaj7)         
И упасть черной звездой
A7      Dm7 Am/C B Asus4
к твоим ногам.

       Dm Am/C B (Bmaj7)         
А к утру выпадет снег
A7        Dm7 Am/C B Asus4
и закружит день,
       Dm Am/C B (Bmaj7)         
Отпоет вьюга-гроза
A7        Dm7 Am/C B Asus4
по сугробам лет,

       Dm Am/C B (Bmaj7)         
И из гнезд пасынка звезд
A7      Dm7 Am/C B Asus4
позовет метель,
       Dm Am/C B (Bmaj7)         
От земли имя принять,
A7        Dm7 Am/C B Asus4
да зажечь к весне рассвет.

       Dm Am/C B (Bmaj7)         
По ночам бредить луной
A7      Dm7 Am/C B Asus4
да перечить сну,
       Dm Am/C B (Bmaj7)         
До небес ладить костры
A7      Dm7 Am/C B Asus4
по седым ручьям,

       Dm Am/C B (Bmaj7)         
По земле песней лететь
A7      Dm7 Am/C B Asus4
от окна к окну,
       Dm Am/C B (Bmaj7)         
Да глядеть солнцу в лицо,
A7        Dm7 Am/C B Asus4
как в глаза друзьям.

       Dm Am/C B (Bmaj7)         
Да охранит тебя Солнце от мутных зрачков!
A7        Dm7 Am/C B Asus4
Да охранит тебя Солнце от грязного рта!
       Dm Am/C B (Bmaj7)         
Да охранит тебя Солнце от черных присяг!
A7        Dm7 Am/C B Asus4
Да оделит тебя Солнце глазами любви!

Комментарий автора

A * - зажимаем 2 струну на 3 ладу.

Аппликатуры аккордов

Аккорд Dm7
Аккорд Am/C
Аккорд B
Аккорд Asus4
Аккорд Dm
Аккорд Bmaj7
Аккорд A7

Видео Алиса Пасынок звезд

Алиса популярные подборы аккордов

Название композицииПросмотров
Алиса 3,890
Алиса 940
Алиса 836
Алиса 751
Алиса 449