Уважаемые пользователи, в данный момент ведутся работы по настройке мобильной версии сайта и поэтому часть функций не работает или работает не корректно.

Алиса - Саботаж, аккорды

  • 4,954
  • 2
  • 07 марта 2014
Прокрутка
Тон-сть
Шрифт
Гитарный рифф из вступления:

E||----------------------|--------------------------|------------------------|
B||----------------------|--------------------------|------------------------|
G||----------------------|--------------------------|--9---------------------|
D||----------------------|--------------------------|--9---------------------|
A||--0h-2--2----2--------|--9p-7--5p-2--5p-2--0--2--|--7----5/-2--5--7--2----|
D||--0h-2--2----2--------|--9p-7--5p-2--5p-2--0--2--|-------5/-2--5--7--2----|

 
---------------------|----------------------|--------------------------|
---------------------|----------------------|--------------------------|
--7----9----9--------|----------------------|--------------------------|
--7----9----9--------|----------------------|--------------------------|
--5----7----7--------|--0h-2--2----2--------|--9p-7--5p-2--5p-2--0--2--|
---------------------|--0h-2--2----2--------|--9p-7--5p-2--5p-2--0--2--|

 
-----------------------|--------------------------||
-----------------------|--------------------------||
-----------------------|--------------------------||
-----------------------|--------------------------||
--7--5------9--12------|--7--5--2--7--5--2--5--7--||
--7--5------9--12------|--7--5--2--7--5--2--5--7--||



E5
Похоже здесь, готовится пресс,
То ли накат, то ли замес.
Все, кто бы мог подтвердить этот взгляд,
Либо ушли, либо сидят.

Из всех щелей мне в уши жужжат,
Все по уму, все самокат!
Да только я все никак не пойму,
Что самокат и что по уму.


По всем городам носится весть,
Что там, где зубцы, вызрела месть.

Там есть, что терять, тут, что хотеть,
Волной контрмер хвалится плеть.

A5
В драке лихая свора ловит кураж,
H5
Так гуляет по неволе наш саботаж.


Все, как когда-то, лет 30 назад,
По кухням ропот, по улицам мат.
Всего лишь миг, лишь доли секунд,
И тишина превращается в бунт.


Пахать, как рабы в трюмах галер,
Решил государь, принял премьер,

Да только, народ-паразит, злобная тать,
Ну как тут управлять, если не брать.

Коли глухая тайна вышла в тираж,
Значит ваши псы проспали наш саботаж.

Аппликатуры аккордов

Аккорд E5
Аккорд A5
Аккорд H5

Видео Алиса Саботаж

Алиса популярные подборы аккордов

Название композицииПросмотров
Алиса 3,945
Алиса 948
Алиса 863
Алиса 698
Алиса 428