Уважаемые пользователи, в данный момент ведутся работы по настройке мобильной версии сайта и поэтому часть функций не работает или работает не корректно.

Animal Jazz - Необратимость, аккорды

  • 2,177
  • 1
  • 02 авг. 2016
Прокрутка
Тон-сть
Шрифт
Сквозь прорези зрачков
Лишь обои
Сорок последних дней
Я был почти готов
Бросить все и
Просто идти за ней
Оплачены счета
Руками грусти
Изрезаны струями дождя
Закончена игра
Меня отпустит
Тонкая колея

Вот мой приз
Незаметно опускается
По веревкам вниз
Бесконечно
Время тянется

И миллионы лет
Не научат
Мудрости дух секунд
Они так долго ждали
И получат
Мой бесполезный бунт
И все, что не успела
Природа
Я сделал за нее
Разрезал по краям
Небосвода
Взял мир на острие

Вот мой приз
Незаметно опускается
По веревкам вниз
Бесконечно
Время тянется
Последний шаг
Безопасен
Бойся первого
Моя душа
Не согласна
Но дело сделано

4/4
Gtr I
 Q  Q   E   E   E   Q   E   Q   Q   Q 
|----------------------------------|
|-----------------0----------------|
|---------0--0-------------0-------|
|-----2---------2----2--2-----2----|
|--0-------------------------------|
|----------------------------------|

4/4
Gtr I
 Q  Q   E   E   E   Q   E   Q   Q   Q 
|----------------------------------|
|-----------------0----------------|
|---------0--0-------------0-------|
|-----2---------2----2--2-----2----|
|--0-------------------------------|
|----------------------------------|

4/4
Gtr I
 Q   Q   E   E   E   Q   E   Q   Q   Q 
|----------------------------------|
|-----------------0----------------|
|---------0--0-------------0-------|
|-----2---------2----2--2-----2----|
|--3-------------------------------|
|----------------------------------|

4/4
Gtr I
 Q   Q   E   E   E   Q   E   Q   Q   Q 
|----------------------------------|
|-----------------3----------------|
|---------0--0-------------0-------|
|-----3---------3----3--3-----3----|
|--1-------------------------------|
|----------------------------------|

Аппликатуры аккордов

Аккорд E

Видео Animal Jazz Необратимость

Animal Jazz популярные подборы аккордов

Название композицииПросмотров
Animal Jazz 4,973
Animal Jazz 2,008
Animal Jazz 840
Animal Jazz 411
Animal Jazz 394