Уважаемые пользователи, в данный момент ведутся работы по настройке мобильной версии сайта и поэтому часть функций не работает или работает не корректно.

Animal Jazz - Необратимость, аккорды

  • 12,291
  • 3
  • 30 нояб. 1999
Прокрутка
Тон-сть
Шрифт
Куплет:
E||---------------------------------------------|
B||----------------------0----------------------|
G||*------------0--0------------------0---------|
D||*-------2----------2-------2--2---------2----|
A||---0-----------------------------------------|
E||---------------------------------------------|

--------------------------------------------|
---------------------1----------------------|
------------0--0------------------0---------|
-------2----------2-------2--2---------2----|
--3-----------------------------------------|
--------------------------------------------|
                                             
--------------------------------------------|
---------------------0----------------------|
------------0--0------------------0---------|
-------2----------2-------2--2---------2----|
--2-----------------------------------------|
--------------------------------------------|

---------------------------------------------||
---------------------1-----------------------||
------------2--2------------------2---------*||
-------3----------3-------3--3---------3----*||
--3------------------------------------------||
---------------------------------------------||

            Сквозь прорези зрачков
            Лишь обои
            Сорок последних дней
            Я был почти готов
            Бросить все и
            Просто идти за ней
            Оплачены счета
            Руками грусти
            Изрезаны струями дождя
            Закончена игра
            Меня отпустит
            Тонкая колея

            Asus2 C
            Вот мой приз
            Em G F Em G F
            Незаметно опускается
            Asus2 C
            По веревкам вниз
            Em G F
            Бесконечно
            Em G F
            Время тянется

Куплет:
E||---------------------------------------------|
B||----------------------0----------------------|
G||*------------0--0------------------0---------|
D||*-------2----------2-------2--2---------2----|
A||---0-----------------------------------------|
E||---------------------------------------------|

--------------------------------------------|
---------------------1----------------------|
------------0--0------------------0---------|
-------2----------2-------2--2---------2----|
--3-----------------------------------------|
--------------------------------------------|
                                             
--------------------------------------------|
---------------------0----------------------|
------------0--0------------------0---------|
-------2----------2-------2--2---------2----|
--2-----------------------------------------|
--------------------------------------------|

---------------------------------------------||
---------------------1-----------------------||
------------2--2------------------2---------*||
-------3----------3-------3--3---------3----*||
--3------------------------------------------||
---------------------------------------------||
            И миллионы лет
            Не научат
            Мудрости дух секунд
            Они так долго ждали
            И получат
            Мой бесполезный бунт
            И все, что не успела
            Природа
            Я сделал за нее
            Разрезал по краям
            Небосвода
            Взял мир на острие

            Asus2 C
            Вот мой приз
            Em G F Em G F
            Незаметно опускается
            Asus2 C
            По веревкам вниз
            Em G F
            Бесконечно
            Em G F
            Время тянется
            Asus2 C
            Последний шаг
            Em G F Em G F
            Безопасен
            Asus2 C
            Бойся первого
            Em G F
            Моя душа не согласна
            Em G F
            Но дело сделано

Аппликатуры аккордов

Аккорд Asus2
Аккорд C
Аккорд Em
Аккорд G
Аккорд F

Видео Animal Jazz Необратимость

Animal Jazz популярные подборы аккордов

Название композицииПросмотров
Animal Jazz 4,767
Animal Jazz 1,852
Animal Jazz 731
Animal Jazz 374
Animal Jazz 340