Уважаемые пользователи, в данный момент ведутся работы по настройке мобильной версии сайта и поэтому часть функций не работает или работает не корректно.

Beatles - In My Life, аккорды

  • 5,946
  • 3
  • 02 июля 2016
Прокрутка
Тон-сть
Шрифт
Intro:                      x2 
e ----------5-----------------4------------------ 
B -----------------------5----------------------- 
G ----6---------6/7----------------------------- 
D ------------------------------------------------ 
A ----0---------0-------------------------------- 
E -----------------------------0--------0-0-0---- 
 
              A     E       F#m  A7    
There are places i'll remember 
      D - Dm             A               
All my      life      though some have changed 
               A     E     F#m        A7   
Some   forever      not for     better 
          D - Dm        A     
Some have      gone and   some remain 
        F#m                 D
All these places have their moments  
           G                              A
With      lovers and friends i still can recall 
         F#m                      B7
Some are dead and some are living 
   D   Dm        A
In my life i've loved them all 
 
Intro 
 
        A       E           F#m       A7
But of      all these friends and lovers 
            D - Dm          A               
There is no one compares with you 
          A            E          F#m       A7
And these memories lose their       meaning 
              D         Dm        A
When i think of love as      something new 
      F#m                         D
Though i know i'll never lose affection 
      G                               A
For      people and things that      went before 
   F#m                             B7
I know i'll often stop and think about them 
   D  Dm     A     
In my life i love you more 
 
Solo: A  E  F#m A7 D Dm  A 2x 
 
      F#m                         D
Though i know i'll never lose affection 
      G                               A
For      people and things that      went before 
   F#m                            B7
I know i'll often stop and think about them 
   D   Dm  A     
In my life i love you more 
---------intro----------x1 
In my life i love you more 
  
e ----------5-----------------4--------4--2--4--------5-
B -----------------------5----------------------------5-
G ----6---------6/7-----------------------------------6-
D ----------------------------------------------------7-
A ----0---------0-------------------------------------0-
E -----------------------------0--------0---------------

Аппликатуры аккордов

Аккорд B
Аккорд G
Аккорд D
Аккорд A
Аккорд E
Аккорд F#m
Аккорд A7
Аккорд Dm
Аккорд B7

Видео Beatles In My Life

Beatles популярные подборы аккордов

Название композицииПросмотров
Beatles 3,079
Beatles 1,024
Beatles 783
Beatles 605
Beatles 487