Уважаемые пользователи, в данный момент ведутся работы по настройке мобильной версии сайта и поэтому часть функций не работает или работает не корректно.

Beatles - Come Together, аккорды

  • 58,740
  • 37
  • 10 сент. 2016
Прокрутка
Тон-сть
Шрифт
Verse:
 Dm
Here come old flat top, He come grooving up slowly, 
 Dm
He got Joo Joo eyeball, He one holy roller  
         A7              
He got  Hair down to his knee;   
 G7
Got to be a joker, he just do what he please. 
 
Instrumental: 
e|------------1--------------| 
B|------------1--3-----------| 
G|------0h2------------------| x2 
D|0--0-----------------------| 
A|---------------------------| 
E|---------------------------|      
                           
 Dm                      
He wear no shoe shine, he got toe jam football 
 Dm
He got monkey finger, he shoot co-ca cola 
         A7 
He say, "I know you, you know me."   
 G7
Оnе thing I can tell you is you got to be free 
 
Chorus:
      Bm              G
Come Together, Right now, over me 

Instrumental: 
e|------------1--------------| 
B|------------1--3-----------| 
G|------0h2------------------| x2 
D|0--0-----------------------| 
A|---------------------------| 
E|---------------------------|  
                
 Dm
He bag production, He got wal-rus gumboot 
 Dm
He got О-no sideboard, He one spinal cracker 
        A7
He got feet down below his knee 
 G7
Hold you in his armchair, you can feel his disease  
 
Chorus:
      Bm              G
Come together, right now, over me 
 
Instrumental: 
e|------------1--------------| 
B|------------1--3-----------| 
G|------0h2------------------| x2 
D|0--0-----------------------| 
A|---------------------------| 
E|---------------------------| 
 
 Dm
He roller coaster, he got early warning 
 Dm
He got muddy water, He one Mo-jo filter 
         A7
He say, " Оnе and one and one is three." 
 G7
Got to be good looking 'cause he so hard to see  
 
Chorus:
      Bm              G
Come together, right now, over me  
      Bm             G
Come together, Right now, over me 

Аппликатуры аккордов

Аккорд Dm
Аккорд A7
Аккорд G7
Аккорд Bm
Аккорд G

Видео Beatles Come Together

Beatles популярные подборы аккордов

Название композицииПросмотров
Beatles 3,079
Beatles 1,024
Beatles 783
Beatles 605
Beatles 487