Уважаемые пользователи, в данный момент ведутся работы по настройке мобильной версии сайта и поэтому часть функций не работает или работает не корректно.

Beatles - And I Love Her, аккорды

  • 18,062
  • 15
  • 30 нояб. 1999
Прокрутка
Тон-сть
Шрифт
Tab 1 (1, 2, 4, 5 куплеты):
E------------------------------------------------------------------------------
B----------3-1-4------------3--1--------------3-1-4--4-1-----------------------
G----0-1---------------0-1------------0-1-------------------6-5-3------------0-
D--3----------------3--------------3-------------------------------------------
A-------------------------------------------------------------------1--1--3----
E------------------------------------------------------------------------------

Tab 2 (3 куплет):
E---------------------------------------------------
B--------------3-------------3----------------------
G--0-0-0-3---------3-0-3--------3-0-3-----0-3-0-----
D------------------------------------------------3--
A---------------------------------------------------
E---------------------------------------------------

Бас:
Проиграйте эту партию баса в начале и в конце песни. 
А дальше - ad libitum (т. е. как хотите)
-------------------------------------
D-------1--0-------------1--0---------
A--1------------3----1------------3---
E-------------------------------------

Вступление (x2): 
Акк:  Fm                Eb (или Cm7 - оба варианта подходят)
      Бас - партия      Бас-партия

Fm         Cm
I give her all my love
  Fm          Cm
That´s all I do
Fm          Cm 
And if you saw my love
 Ab             B 
You´d love her too
   Eb
I love her

Fm         Cm
She gives me ev´rything
Fm        Cm
And tenderly
Fm         Cm
The kiss my lover brings
 Ab            B 
She brings to me
   Eb
And I love her

Gm          B  
А love like ours
Cm7         Gm 
Could never die
Gm         Cm
As long as I
          B
Have you near me

Fm         Cm
Bright are the stars that shine
Fm         Cm
Dark is the sky
Fm         Cm
I know this love of mine
 Ab          B 
Will never die
   Eb
And I love her 

Tab 1:
E------------------------------------------------------------------------------
B----------3-1-4------------3--1--------------3-1-4--4-1-----------------------
G----0-1---------------0-1------------0-1------------------------------------0-
D--3----------------3--------------3------------------------6-5-3--------------
A-------------------------------------------------------------------1--1--3----
E------------------------------------------------------------------------------

Fm         Cm
Bright are the stars that shine
Fm         Cm
Dark is the sky
Fm         Cm
I know this love of mine
 Ab          B 
Will never die
   Eb
And I love her 

Окончание: 
Акк:  Fm               Eb (или Cm7 - оба варианта подходят)
      Бас- партия      Бас-партия
      Fm               C (Теперь уже только этот) 
      Бас- партия      Бас-партия

Аппликатуры аккордов

Аккорд Fm
Аккорд Eb
Аккорд Cm7
Аккорд Cm
Аккорд Ab
Аккорд B
Аккорд Gm
Аккорд C

Видео Beatles And I Love Her

Beatles популярные подборы аккордов

Название композицииПросмотров
Beatles 2,954
Beatles 1,027
Beatles 767
Beatles 590
Beatles 474