Уважаемые пользователи, в данный момент ведутся работы по настройке мобильной версии сайта и поэтому часть функций не работает или работает не корректно.

Beatles - Cry Baby Cry, аккорды

  • 4,836
  • 2
  • 30 нояб. 1999
Прокрутка
Тон-сть
Шрифт
  G                               Am
e|3------ 3---3-- 3---3-- 3------|0------ 0------ 0------ 0------|
B|3-------3---3---3---3---3------|1-------1-------1-------0------|
G|0-------0---0---0---0---0------|2-------2-------2-------0------|
D|0-------0---0---0---0---0------|2-------2-------2-------0------|
A|2-------2---2---2---2---2------|0-------0-------0--------------|
E|3-------3---3---3---3---3------|-------------------------------|
  Cry         baby        cry

  F                               G
e|1------ 1---1-- 1------ 1------|3---3-- 3------ 3------ 3---3--|
B|1-------1---1---1-------1------|3---3---3-------3-------3---3--|
G|2-------2---2---2-------2------|0---0---0-------0-------0---0--|
D|3-------3---3---3-------3------|0---0---0-------0-------0---0--|
A|3-------3---3---3-------3------|2---2---2-------2-------2---2--|
E|1-------1---1---1-------1------|3---3---3-------3-------3---3--|

e|------- ------- ------- -------|------- ------- ------- -------|
B|-------------------------------|-------------------------------|
G|-------------------------------|----------------4-------4---7--|
D|-------------------------------|--------5---7-------5----------|
A|-------------------------------|-------------------------------|
E|-------------------------------|-------------------------------|

  Em                              A
e|0------ 0------ 0------ 0---0--|0------ 0------ 0---0-- 0------|
B|0-------0-------0-------0---0--|2-------2-------2---2---2------|
G|0-------0-------0-------0---0--|2-------2-------2---2---2------|
D|2-------2-------2-------2---2--|2-------2-------2---2---2------|
A|2-------2-------2-------2---2--|0-------0-------0---0---0------|
E|0-------0-------0-------0---0--|-------------------------------|

e|------- ------- ------- -------|------- ------- ------- -------|
B|5---7---8---7---5--------------|----------------5--------------|
G|--------------------7---4------|----4---6---7-------7---6---4--|
D|----------------------------5--|7------------------------------|
A|-------------------------------|-------------------------------|
E|-------------------------------|-------------------------------|
                     
  F
e|1------ 1------ 1------ 1------|
B|1-------1-------1-------1------|
G|2-------2-------2-------2------|
D|3-------3-------3-------3------|
A|3-------3-------3-------3------|
E|1-------1-------1-------1------|

e|------- ------- ------- -------|
B|-------------------------------|
G|-------------------------------|
D|7-----------------------7------|     
A|--------8------10--------------|
E|-------------------------------|

  Em                              Em+7
e|0------ 0------ 0------ 0------|0------ 0------ 0------ 0------|
B|0-------0-------0-------0------|0-------0-------0-------0------|
G|0-------0-------0-------0------|0-------0-------0-------0------|
D|2-------2-------2-------2------|1-------1-------1-------1------|
A|2-------2-------2-------2------|2-------2-------2-------2------|
E|0-------0-------0-------0------|0-------0-------0-------0------|
   
e|------- ------- ------- -------|------- ------- ------- -------|
B|-------------------------------|-------------------------------|
G|-------------------------------|-------------------------------|
D|-9-----------------------------|-------------------------------|
A|10-----------------------------|-------------------------------|
E|12-----------------------------|-------------------------------|

  Em7                             Em6
e|0------ 0------ 0------ 0------|0------ 0------ 0------ 0------|
B|0-------0-------0-------0------|0-------0-------0-------0------|
G|0-------0-------0-------0------|0-------0-------0-------0------|
D|0-------0-------0-------0------|-------------------------------|
A|2-------2-------2-------2------|4-------4-------4-------4------|
E|0-------0-------0-------0------|0-------0-------0-------0------|

  C                               G
e|0------ 0------ 0------ 0---0--|3------ ------- ------- 3---3--|
B|1-------1-------1-------1---1--|3-----------------------3---3--|
G|0-------0-------0-------0---0--|0-----------------------0---0--|
D|2-------2-------2-------2---2--|0-----------------------0---0--|
A|3-------3-------3-------3---3--|2-----------------------2---2--|
E|3-------3-------3-------3---3--|3-----------------------3---3--|

e|------- ------- ------- -------|------- ------- ------- -------|
B|-------------------------------|0---------------0--------------|
G|0---------------3-------0------|0-------0-------0-------0------|
D|2---------------2--------------|0---------------0--------------|
A|--------3----------------------|-------------------------------|
E|-------------------------------|3------------------------------|

  Em                              Em+7
e|0------ 0------ 0------ 0------|0------ 0------ 0------ 0------|
B|0-------0-------0-------0------|0-------0-------0-------0------|
G|0-------0-------0-------0------|0-------0-------0-------0------|
D|2-------2-------2-------2------|1-------1-------1-------1------|
A|2-------2-------2-------2------|2-------2-------2-------2------|
E|0-------0-------0-------0------|0-------0-------0-------0------|

  Em7                             Em6
e|0------ 0------ 0------ 0------|0------ 0---0-- 0------ 0------|
B|0-------0-------0-------0------|0-------0---0---0-------0------|
G|0-------0-------0-------0------|0-------0---0---0-------0------|
D|0-------0-------0-------0------|-------------------------------|
A|2-------2-------2-------2------|4-------4---4---4-------4------|
E|0-------0-------0-------0------|0-------0---0---0-------0------|

  C
e|0------ 0------ 0------ -------|
B|1-------1-------1--------------|
G|0-------0-------0--------------|
D|2-------2-------2--------------|
A|3-------3-------3--------------|
E|3-------3-------3--------------|

  G                               Am
e|3------ ------- 3------ -------|0------ 0------ 0------ 0------|
B|3---------------3--------------|1-------1-------1-------1------|
G|0---------------0--------------|2-------2-------2-------2------|
D|0---------------0--------------|2-------2-------2-------2------|
A|2---------------2--------------|0-------0-------0-------0------|
E|3---------------3--------------|-------------------------------|

e|------- ------- ------- -------|------- ------- ------- -------|
B|0---------------0--------------|1---------------1--------------|
G|0-------0-------0-------0------|2-------2-------2-------2---0--|
D|0---------------0--------------|2---------------2--------------|
A|-------------------------------|0---------------0--------------|
E|3---------------3--------------|-------------------------------|

  F                               G
e|1------ ------- 1------ 1------|3------ ------- 3------ 3------|
B|1---------------1-------1------|3---------------3-------3------|
G|2---------------2-------2------|0---------------0-------0------|
D|3---------------3-------3------|0---------------0-------0------|
A|3---------------3-------3------|2---------------2-------2------|
E|1---------------1-------1------|3---------------3-------3------|

e|------- ------- ------- -------|------- ------- ------- -------|
B|1---------------1--------------|0---------------0--------------|
G|2---------------0-------2------|0-------0-------0-------0------|
D|3---------------3--------------|0---------------0--------------|
A|-------------------------------|-------------------------------|
E|-------------------------------|3---------------3-------3---1--|

  Em                              A   
e|0------ 0------ 0------ 0------|0------ 0------ 0------ 0------|
B|0-------0-------0-------0------|2-------2-------2-------2------|
G|0-------0-------0-------0------|2-------2-------2-------2------|
D|2-------2-------2-------2------|2-------2-------2-------2------|
A|2-------2-------2-------2------|0-------0-------0-------0------|
E|0-------0-------0-------0------|-------------------------------|

e|0------ ------- ------- -------|------- ------- ------- -------|
B|0---------------0--------------|2---------------2--------------|
G|0-------0-------0-------0------|2-------2-------2-------2---0--|
D|2---------------2--------------|2---------------2--------------|
A|2---------------2--------------|0---------------0--------------|
E|0---------------0--------------|-------------------------------|

  F                               G
e|1------ 1------ 1------ -------|3------ 3------ 3------ 3------|
B|1-------1-------1--------------|3-------3-------3-------3------|
G|2-------2-------2--------------|0-------0-------0-------0------|
D|3-------3-------3--------------|0-------0-------0-------0------|
A|3-------3-------3--------------|2-------2-------2-------2------|
E|1-------1-------1--------------|3-------3-------3-------3------| 

e|------- ------- ------- -------|------- ------- ------- -------|
B|1---------------1--------------|0---------------0--------------|
G|2-------2-------0-------2------|0-------0-------0-------0------|
D|3---------------3--------------|0---------------0--------------|
A|-------------------------------|-------------------------------|
E|-------------------------------|3---------------3--------------|

  Em                              Em+7
e|------- ------- ------- -------|------- ------- ------- -------|
B|-------------------------------|-------------------------------|
G|-------------------------------|-------------------------------|
D|2------------------------------|1------------------------------|
A|-------------------------------|-------------------------------|
E|-------------------------------|-------------------------------|

  Em7                             Em6
e|------- ------- ------- -------|------- ------- ------- -------|
B|-------------------------------|-------------------------------|
G|-------------------------------|-------------------------------|
D|0------------------------------|-------------------------------|
A|-------------------------------|4------------------------------|
E|-------------------------------|-------------------------------|

  C                               G
e|0------ ------- 0------ -------|3------ ------- 3------ -------|
B|1---------------1--------------|3---------------3--------------|
G|0---------------0--------------|0---------------0--------------|
D|2---------------2--------------|0---------------0--------------|
A|3---------------3--------------|2---------------2--------------|
E|3---------------3--------------|3---------------3--------------|

e|------- ------- ------- -------|------- ------- ------- -------|
B|-------------------------------|0-------0----------------------|
G|0---------------3-------0------|0-------0----------------------|
D|2---------------2--------------|0-------0----------------------|
A|--------3----------------------|-------------------------------|
E|-------------------------------|3------------------------------|

  Em                              Em+7
e|------- ------- ------- -------|------- ------- ------- -------|
B|-------------------------------|-------------------------------|
G|-------------------------------|-------------------------------|
D|2------------------------------|1------------------------------|
A|-------------------------------|-------------------------------|
E|-------------------------------|-------------------------------|

  Em7                             Em6
e|------- ------- ------- -------|------- ------- ------- -------|
B|-------------------------------|-------------------------------|
G|-------------------------------|-------------------------------|
D|0------------------------------|-------------------------------|
A|-------------------------------|4------------------------------|
E|-------------------------------|-------------------------------|

  C
e|0------ ------- 0------ -------|
B|1---------------1--------------|
G|0---------------0--------------|
D|2---------------2--------------|
A|3---------------3--------------|
E|3---------------3--------------|

e|------- ------- ------- -------|
B|-------------------------------|
G|0---------------3-------0------|
D|2---------------2--------------|
A|--------3----------------------|
E|-------------------------------|

  G                               Am
e|3------ ------- ------- 3------|0------ 0------ 0------ -------|
B|3-----------------------3------|1-------1-------1--------------|
G|0-----------------------0------|2-------2-------2--------------|
D|0-----------------------0------|2-------2-------2-------2------|   
A|2-----------------------2------|0-------0-------0-------0------|
E|3-----------------------3------|------------------------0------|

e|------- ------- ------- -------|------- ------- ------- -------|
B|0---------------0--------------|1---------------1--------------|
G|0-------0-------0-------0------|2-------2-------2-------2---0--|
D|0---------------0--------------|2---------------2--------------|
A|-------------------------------|0---------------0--------------|
E|3---------------3--------------|-------------------------------|

  F                               G
e|1------ ------- 1------ 1------|3------ ------- 3------ 3------|
B|1---------------1-------1------|3---------------3-------3------|
G|2---------------2-------2------|0---------------0-------0------|
D|3---------------3-------3------|0---------------0-------0------|
A|3---------------3-------3------|2---------------2-------2------|
E|1---------------1-------1------|3---------------3-------3------|

e|------- ------- ------- -------|------- ------- ------- -------|
B|1---------------1--------------|0---------------0--------------|
G|2---------------2-------2------|0-------0-------0-------0------|     
D|3---------------3--------------|0---------------0--------------|
A|-------------------------------|-------------------------------|
E|-------------------------------|3---------------3-------3---1--|

  Em                              A   
e|0------ 0------ 0------ 0------|0------ 0------ 0------ 0------|
B|0-------0-------0-------0------|2-------2-------2-------2------|
G|0-------0-------0-------0------|2-------2-------2-------2------|
D|2-------2-------2-------2------|2-------2-------2-------2------|
A|2-------2-------2-------2------|0-------0-------0-------0------|
E|0-------0-------0-------0------|-------------------------------|

e|0------ ------- ------- -------|------- ------- ------- -------|
B|0---------------0--------------|2---------------2--------------|
G|0-------0-------0--------------|2---------------2-------2---0--|
D|2---------------2--------------|2---------------2--------------|
A|2---------------2--------------|0---------------0--------------|
E|0---------------0--------------|-------------------------------|

  F                               G
e|1------ 1------ 1------ 1------|3------ ------- ------- -------|
B|1-------1-------1-------1------|3------------------------------|
G|2-------2-------2-------2------|0------------------------------|
D|3-------3-------3-------3------|0------------------------------|
A|3-------3-------3-------3------|2------------------------------|
E|1-------1-------1-------1------|3------------------------------|

e|------- ------- ------- -------|------- ------- ------- -------|
B|1---------------1--------------|0---------------0--------------|
G|2---------------2--------------|0---------------0-------0------|
D|3---------------3--------------|0---------------0--------------|
A|-------------------------------|-------------------------------|
E|-------------------------------|3---------------3--------------| 

  Em                              EmMaj7
e|0------ 0------ 0------ 0------|0------ 0------ 0------ 0------|
B|0-------0-------0-------0------|0-------0-------0-------0------|
G|0-------0-------0-------0------|0-------0-------0-------0------|
D|2-------2-------2-------2------|1-------1-------1-------1------|
A|2-------2-------2-------2------|2-------2-------2-------2------|
E|0-------0-------0-------0------|0-------0-------0-------0------|

  Em7                             Em6
e|0------ ------- 0------ 0------|0------ ------- 0------ -------|
B|0---------------0-------0------|0---------------0--------------|
G|0---------------0-------0------|0---------------0--------------|
D|0---------------0-------0------|-------------------------------|
A|2---------------2-------2------|4---------------4--------------|
E|0---------------0-------0------|0---------------0--------------|

  C                               G
e|0------ 0------ 0------ -------|3------ ------- 3------ -------|
B|1-------1-------1--------------|3---------------3--------------|
G|0-------0-------0--------------|0---------------0--------------|
D|2-------2-------2--------------|0---------------0--------------|
A|3-------3-------3--------------|2---------------2--------------|
E|3-------3-------3--------------|3---------------3--------------|

e|------- ------- ------- -------|------- ------- ------- -------|
B|-------------------------------|0------------------------------|
G|0---------------3-------0------|0------------------------------|
D|2---------------2--------------|0------------------------------|
A|--------3----------------------|-------------------------------|
E|-------------------------------|3------------------------------|

e|------- ------- ------- -------|------- ------- ------- -------|
B|-------------------------------|-------------------------------|
G|-------------------------------|-------------------------------|
D|5---------------8--------------|5------------------------------|
A|---------7---------------------|-------------------------------|
E|-------------------------------|-------------------------------|

 Em                              EmMaj7
e|0------ ------- ------- -------|0------ ------- ------- -------|
B|0------------------------------|0------------------------------|
G|0------------------------------|0------------------------------|
D|2------------------------------|1------------------------------|
A|2------------------------------|2------------------------------|
E|0------------------------------|0------------------------------|

  Em7                             Em6
e|0------ 0------ 0------ 0------|0------ ------- 0------ -------|
B|0-------0-------0-------0------|0---------------0--------------|
G|0-------0-------0-------0------|0---------------0--------------|
D|0-------0-------0-------0------|-------------------------------|
A|2-------2-------2-------2------|4---------------4--------------|
E|0-------0-------0-------0------|0---------------0--------------|

  C
e|0------ 0------ 0------ -------|
B|1-------1-------1--------------|
G|0-------0-------0--------------|
D|2-------2-------2--------------|
A|3-------3-------3--------------|
E|3-------3-------3--------------|

e|------- ------- ------- -------|
B|-------------------------------|
G|0---------------3-------0------|
D|2---------------2--------------|
A|--------3----------------------|
E|-------------------------------|

e|------- ------- 12----- -------|
B|--------------------11---------|
G|--------12---------------------|
D|-------------------------------|
A|-------------------------------|
E|-------------------------------|

  G                               Am
e|3------ 3------ 3------ 3------|0------ ------- 0------ -------|
B|3-------3-------3-------3------|1---------------1--------------|
G|0-------0-------0-------0------|2---------------2-------0------|
D|0-------0-------0-------0------|2---------------2-------2------|
A|2-------2-------2-------2------|0---------------0-------0------|    
E|3-------3-------3-------3------|------------------------0------|

e|------- ------- ------- -------|------- ------- ------- -------|
B|0---------------0--------------|1---------------1--------------|
G|0-------0-------0-------0------|2-------2-------2-------2---0--|
D|0---------------0--------------|2---------------2--------------|
A|-------------------------------|0---------------0--------------|
E|3---------------3--------------|-------------------------------|

  F                               G
e|1------ 1------ 1------ 1------|3------ 3------ 3------ 3------|
B|1-------1-------1-------1------|3-------3-------3-------3------|
G|2-------2-------2-------2------|0-------0-------0-------0------|
D|3-------3-------3-------3------|0-------0-------0-------0------|
A|3-------3-------3-------3------|2-------2-------2-------2------|
E|1-------1-------1-------1------|3-------3-------3-------3------|

e|------- ------- ------- -------|------- ------- ------- -------|
B|1---------------1--------------|0---------------0--------------|
G|2---------------0-------2------|0-------0-------0-------0------|
D|3---------------3--------------|0---------------0--------------|
A|-------------------------------|-------------------------------|
E|-------------------------------|3---------------3--------------|

  Em                              A   
e|0------ 0------ 0------ 0------|0------ 0------ 0------ -------|
B|0-------0-------0-------0------|2-------2-------2--------------|
G|0-------0-------0-------0------|2-------2-------2--------------|
D|2-------2-------2-------2------|2-------2-------2-------2------|
A|2-------2-------2-------2------|0-------0-------0-------0------|
E|0-------0-------0-------0------|------------------------0------|

e|0------ ------- ------- -------|------- ------- ------- -------|
B|0---------------0--------------|2---------------2--------------|
G|0-------0-------0-------0------|2-------2-------2-------2---0--|
D|2---------------2--------------|2---------------2--------------|
A|2---------------2--------------|0---------------0--------------|
E|0---------------0--------------|-------------------------------|

  F                               G
e|1------ 1------ 1------ 1------|3------ 3------ 3------ 3------|
B|1-------1-------1-------1------|3-------3-------3-------3------|
G|2-------2-------2-------2------|0-------0-------0-------0------|
D|3-------3-------3-------3------|0-------0-------0-------0------|
A|3-------3-------3-------3------|2-------2-------2-------2------|
E|1-------1-------1-------1------|3-------3-------3-------3------|

e|------- ------- ------- -------|------- ------- ------- -------|
B|1---------------1--------------|0-----------------------0------|
G|2---------------2--------------|0-----------------------0------|   
D|3---------------3--------------|0-----------------------0------|
A|-------------------------------|-------------------------------|
E|-------------------------------|-------------------------------|   

  Em                              Em+7
e|0------ ------- ------- -------|0------ ------- ------- -------|
B|0------------------------------|0------------------------------|
G|0------------------------------|0------------------------------|
D|2------------------------------|1------------------------------|
A|2------------------------------|2------------------------------|
E|0------------------------------|0------------------------------|

  Em7                             Em6
e|0------ ------- ------- -------|0------ ------- ------- -------|
B|0------------------------------|0------------------------------|
G|0------------------------------|0------------------------------|
D|0------------------------------|-------------------------------|
A|2------------------------------|4------------------------------|
E|0------------------------------|0------------------------------|

  C                               G
e|0------ ------- 0------ -------|3------ ------- ------- -------|
B|1---------------1--------------|3------------------------------|
G|0---------------3--------------|0------------------------------|
D|2---------------2--------------|0------------------------------|
A|3---------------3--------------|2------------------------------|
E|-------------------------------|3------------------------------|

e|------- ------- ------- -------|------- ------- ------- -------|
B|-------------------------------|0-------0----------------------|
G|0---------------3-------0------|0-------0----------------------|
D|2---------------2--------------|0-------0----------------------|
A|--------3----------------------|-------------------------------|
E|-------------------------------|3------------------------------|

  Em                              Em+7
e|0------ ------- ------- -------|0------ ------- ------- -------|
B|0------------------------------|0------------------------------|
G|0------------------------------|0------------------------------|
D|2------------------------------|1------------------------------|
A|2------------------------------|2------------------------------|
E|0------------------------------|0------------------------------| 

  Em7                             Em6
e|0------ ------- ------- -------|0------ ------- ------- -------|
B|0------------------------------|0------------------------------|
G|0------------------------------|0------------------------------|
D|0------------------------------|-------------------------------|
A|2------------------------------|4------------------------------|
E|0------------------------------|0------------------------------|

  C
e|0------ 0------ 0------ -------|
B|1-------1-------1--------------|
G|0-------0-------0--------------|
D|2-------2-------2--------------|
A|3-------3-------3--------------|
E|3-------3-------3--------------|

e|------- ------- ------- -------|
B|-------------------------------|
G|0---------------3-------0------|
D|2---------------2--------------|
A|--------3----------------------|
E|-------------------------------|

  G                               Am
e|3------ 3------ 3------ 3------|0------ 0------ 0------ 0------|
B|3-------3-------3-------3------|1-------1-------1-------1------|
G|0-------0-------0-------0------|2-------2-------2-------2------|
D|0-------0-------0-------0------|2-------2-------2-------2------|
A|2-------2-------2-------2------|0-------0-------0-------0------|
E|3-------3-------3-------3------|-------------------------------|

e|------- ------- ------- -------|------- ------- ------- -------|
B|0---------------0--------------|1---------------1--------------|
G|0-------0-------0-------0------|2-------2-------2-------2---0--|
D|0---------------0--------------|2---------------2--------------|
A|-------------------------------|0---------------0--------------|
E|3---------------3--------------|-------------------------------|

  F                               G
e|1------ 1------ ------- 1------|3------ 3------ 3------ 3------|
B|1-------1---------------1------|3-------3-------3-------3------|
G|2-------2---------------2------|0-------0-------0-------0------|
D|3-------3---------------3------|0-------0-------0-------0------|
A|3-------3---------------3------|2-------2-------2-------2------|
E|1-------1---------------1------|3-------3-------3-------3------|

e|------- ------- ------- -------|------- ------- ------- -------|
B|1---------------1--------------|0---------------0--------------|
G|2---------------0-------2------|0-------0-------0-------0------|
D|3---------------3--------------|0---------------0--------------|
A|-------------------------------|-------------------------------|
E|-------------------------------|3---------------3--------------|

  Em                              A   
e|0------ 0------ 0------ 0------|0------ 0------ 0------ 0------|
B|0-------0-------0-------0------|2-------2-------2-------2------|
G|0-------0-------0-------0------|2-------2-------2-------2------|
D|2-------2-------2-------2------|2-------2-------2-------2------|
A|2-------2-------2-------2------|0-------0-------0-------0------|
E|0-------0-------0-------0------|-------------------------------|

e|0------ ------- ------- -------|------- ------- ------- -------|
B|0---------------0--------------|2---------------2--------------|
G|0-------0-------0-------0------|2-------2-------2-------2---0--|
D|2---------------2--------------|2---------------2--------------|
A|2---------------2--------------|0---------------0--------------|
E|0---------------0--------------|-------------------------------|

  F
e|1------ 1------ 1------ 1------|
B|1-------1-------1-------1------|
G|2-------2-------2-------2------|
D|3-------3-------3-------3------|
A|3-------3-------3-------3------|
E|1-------1-------1-------1------|
     
e|------- ------- ------- -------|
B|-------------------------------|
G|-------------------------------|
D|-------------------------------|
A|-------------------------------|
E|-------------------------------|   

  G                               Am
e|3------ 3------ 3------ 3------|0------ 0------ 0------ 0------|
B|3-------3-------3-------3------|1-------1-------1-------1------|
G|0-------0-------0-------0------|2-------2-------2-------2------|
D|0-------0-------0-------0------|2-------2-------2-------2------|
A|2-------2-------2-------2------|0-------0-------0-------0------|
E|3-------3-------3-------3------|-------------------------------|

e|------- ------- ------- -------|------- ------- ------- -------|
B|0---------------0--------------|1---------------1--------------|
G|0-------0-------0-------0------|2-------2-------2-------2---0--|
D|0---------------0--------------|2---------------2--------------|
A|-------------------------------|0---------------0--------------|
E|3---------------3--------------|-------------------------------|

  F                               G
e|1------ 1------ 1------ 1------|3------ 3---3-- 3---3-- 3------|
B|1-------1-------1-------1------|3-------3---3---3---3---3------|
G|2-------2-------2-------2------|0-------0---0---0---0---0------|
D|3-------3-------3-------3------|0-------0---0---0---0---0------|
A|3-------3-------3-------3------|2-------2---2---2---2---2------|
E|1-------1-------1-------1------|3-------3---3---3---3---3------|

e|------- ------- ------- -------|------- ------- ------- -------|
B|1---------------1--------------|0---------------0--------------|
G|2---------------0-------2------|0-------0-------0-------0------|
D|3---------------3--------------|0---------------0--------------|
A|-------------------------------|-------------------------------|
E|-------------------------------|3---------------3--------------|

  Em                              A   
e|0------ 0------ 0------ 0------|0------ 0---0-- 0------ 0------|
B|0-------0-------0-------0------|2-------2---2---2-------2------|
G|0-------0-------0-------0------|2-------2---2---0-------0------|
D|2-------2-------2-------2------|2-------2---2---2-------2------|
A|2-------2-------2-------2------|0-------0---0---0-------0------|
E|0-------0-------0-------0------|-------------------------------|

e|0------ ------- ------- -------|------- ------- ------- -------|
B|0---------------0--------------|2---------------2--------------|
G|0-------0-------0-------0------|2-------2-------2-------2---0--|
D|2---------------2--------------|2---------------2--------------|
A|2---------------2--------------|0---------------0--------------|
E|0---------------0--------------|-------------------------------|

  F                               
e|1------ 1------ 1------ 1------|
B|1-------1-------1-------1------|
G|2-------2-------2-------2------|
D|3-------3-------3-------3------|
A|3-------3-------3-------3------|
E|1-------1-------1-------1------|

e|------- ------- ------- -------|
B|1---------------1--------------|
G|2---------------0-------2------|
D|3---------------3--------------|
A|-------------------------------|
E|-------------------------------|

  G                               Am
e|3------ 3---3-- 3------ 3------|0------ 0------ 0------ -------|
B|3-------3---3---3-------3------|1-------1-------1-------0------|
G|0-------0---0---0-------0------|2-------2-------2-------0------|
D|0-------0---0---0-------0------|2-------2-------2-------0------|
A|2-------2---2---2-------2------|0-------0-------0--------------|
E|3-------3---3---3-------3------|-------------------------------|

e|------- ------- ------- -------|------- ------- ------- -------|
B|0---------------0--------------|1---------------1--------------|
G|0-------0-------0-------0------|2-------2-------2-------2---0--|
D|0---------------0--------------|2---------------2--------------|
A|-------------------------------|0---------------0--------------|
E|3---------------3--------------|-------------------------------|

  F                               G
e|1------ 1------ 1------ 1------|3------ 3------ ------- 3------|
B|1-------1-------1-------1------|3-------3---------------3------|
G|2-------2-------2-------2------|0-------0---------------0------|
D|3-------3-------3-------3------|0-------0---------------0------|
A|3-------3-------3-------3------|2-------2---------------2------|
E|1-------1-------1-------1------|3-------3---------------3------|

e|------- ------- ------- -------|------- ------- ------- -------|
B|1---------------1--------------|0---------------0--------------|
G|2---------------0-------2------|0-------0-------0-------0------|
D|3---------------3--------------|0---------------0--------------|
A|-------------------------------|-------------------------------|
E|-------------------------------|3---------------3--------------|

  Em                              A   
e|0------ 0------ ------- 0------|0------ 0---0-- 0---0-- 0------|
B|0-------0---------------0------|2-------2---2---2---2---2------|
G|0-------0---------------0------|2-------2---2---0---0---0------|
D|2-------2---------------2------|2-------2---2---2---2---2------|
A|2-------2---------------2------|0-------0---0---0---0---0------|
E|0-------0---------------0------|-------------------------------|

e|0------ ------- ------- -------|------- ------- ------- -------|
B|0---------------0--------------|2---------------2--------------|
G|0-------0-------0-------0------|2-------2-------2-------2---0--|
D|2---------------2--------------|2---------------2--------------|
A|2---------------2--------------|0---------------0--------------|
E|0---------------0--------------|-------------------------------|

  F                               Em
e|1------ 1------ 1------ 1------|0------ ------- ------- -------|
B|1-------1-------1-------1------|0------------------------------|
G|2-------2-------2-------2------|0------------------------------|
D|3-------3-------3-------3------|2------------------------------|
A|3-------3-------3-------3------|2------------------------------|
E|1-------1-------1-------1------|0------------------------------|

e|------- ------- ------- -------|------- ------- ------- -------|
B|1---------------1--------------|0---------------0--------------|
G|2---------------2--------------|0---------------0--------------| 
D|3---------------3--------------|2---------------2--------------|
A|-------------------------------|--------2----------------------|
E|-------------------------------|0------------------------------|

e|------- ------- ------- -------|------- ------- ------- -------|
B|-------------------------------|-------------------------------|
G|-------------------------------|-------------------------------|
D|-------------------------------|-------------------------------|
A|-------------------------------|-------------------------------|
E|0------------------------------|-------------------------------|

Аппликатуры аккордов

Аккорд G
Аккорд Am
Аккорд F
Аккорд Em
Аккорд A
Аккорд Em+7
Аккорд Em7
Аккорд Em6
Аккорд C

Видео Beatles Cry Baby Cry

Beatles популярные подборы аккордов

Название композицииПросмотров
Beatles 2,952
Beatles 896
Beatles 846
Beatles 604
Beatles 470