Уважаемые пользователи, в данный момент ведутся работы по настройке мобильной версии сайта и поэтому часть функций не работает или работает не корректно.

Beatles - Do You Want To Know A Secret, аккорды

  • 6,061
  • 3
  • 30 нояб. 1999
Прокрутка
Тон-сть
Шрифт
  Em                                                  Am
e|0---------------------------------------------------0----------|
B|0---------------------------------------------------1----------|
G|0---------------------------------------------------2----------|
D|2---------------------------------------------------2----------|
A|2---------------------------------------------------0----------|
E|0--------------------------------------------------------------|
                     You'll never know  how  much  I  really  love

  Em
e|0------------------------------------------|
B|0------------------------------------------|
G|0------------------------------------------|
D|2------------------------------------------|
A|2------------------------------------------|
E|0------------------------------------------|
      you
e|-------------------------------------------|
B|0-0-0-0-0-0-0-0-0-0-0-0-0------------------|
G|-------------------------------------------|
D|-------------------------------------------|
A|-------------------------------------------|
E|-------------------------------------------|

  G                                               F
e|3-----------------------------------------------1--------------|
B|3-----------------------------------------------1--------------|
G|4-----------------------------------------------2--------------|
D|5-----------------------------------------------3--------------|
A|5-----------------------------------------------3--------------|
E|3-----------------------------------------------1--------------|
                  You'll never know  how  much I  really      care
e|------- ------- ------- --------------- ------- 1------ -------|
B|3-3-3-3-3-3-3-3-3-3-3-3-3-3-3-3-3-3-3-3-3-3-3-3-1--------------|
G|------------------------------------------------2--------------|
D|------------------------------------------------3--------------|
A|------------------------------------------------3--------------|
E|------------------------------------------------1--------------|

  B
e|2------ ------- ------- -------|------- ------- ------- -------|
B|4------------------------------|-------------------------------|
G|4------------------------------|-------------------------------|
D|4------------------------------|-------------------------------|
A|2------------------------------|-------------------------------|
E|-------------------------------|-------------------------------|

e|------- -----4- ------- -------|------- ------- ------- -------|
B|----------4--------------------|-------------------------------|
G|--------4----------------------|-------------------------------|
D|-------------------------------|----------------0-------1------|
A|-------------------------------|----2---2-B-4-2-----2-------2--|
E|-------------------------------|-------------------------------|
 
  E                   G#m     Gm  F#m             B7
e|0------ 0------ ----4-- ----3--|2------ 2------ ------- -------|
B|0-------0-----------4-------3--|2-------2-------0-------0------|
G|1-------1-----------4-------3--|2-------2-------2-------2------|
D|2-------2-----------6-------5--|4-------4-------1-------1------|
A|2-------2-----------6-------5--|4-------4-------2-------2------|
E|0-------0-----------4-------3--|2-------2----------------------|
  Listen                                  Do you  want to know a
e|------- ------- ------- -------|------- ------- ------- -------|
B|-------------------------------|-------------------------------|
G|-------------------------------|-------------------------------|
D|2-------2-----------4-------3--|2-------2-------4-------4------|
A|----------------6-------5------|4-------4-------6-------6------|
E|-------------------------------|-------------------------------|

  E                   G#m     Gm  F#m             B7
e|0------ 0------ ----4-- ----3--|2------ 2------ ------- -------|
B|0-------0-----------4-------3--|2-------2-------0-------0------|
G|1-------1-----------4-------3--|2-------2-------2-------2------|
D|2-------2-----------6-------5--|4-------4-------1-------1------|
A|2-------2-----------6-------5--|4-------4-------2-------2------|
E|0-------0-----------4-------3--|2-------2----------------------|
  secret                                  Do you  promise  not to
e|------- ------- ------- -------|------- ------- ------- -------|
B|-------------------------------|-------------------------------|
G|-------------------------------|-------------------------------|
D|2-------2-----------4-------3--|2-------2-------4-------4------|
A|----------------6-------5------|4-------4-------6-------6------|
E|-------------------------------|-------------------------------|

  E                   G#m     Gm  F#m             Am
e|0------ 0------ ----4-- ----3--|2------ 2------ 5---5-- 5------|
B|0-------0-----------4-------3--|2-------2-------5---5---5------|
G|1-------1-----------4-------3--|2-------2-------5---5---5------|
D|2-------2-----------6-------5--|4-------4-------7---7---7------|
A|2-------2-----------6-------5--|4-------4-------7---7---7------|
E|0-------0-----------4-------3--|2-------2-------5---5---5------|
  tell,                   whoa    oh,             oh
e|------- ------- ------- -------|------- ------- ------- -------|
B|-------------------------------|-------------------------------|
G|-------------------------------|-------------------------------|
D|2-------2-----------4-------3--|2---------------2--------------|
A|----------------6-------5------|4---------------3--------------|
E|-------------------------------|-------------------------------|

  E                   G#m     Gm  F#m             B7
e|0------ 0------ ----4-- ----3--|2------ ------- ------- -------|
B|0-------0-----------4-------3--|2---------------0--------------|
G|1-------1-----------4-------3--|2---------------2--------------|
D|2-------2-----------6-------5--|4---------------1--------------|
A|2-------2-----------6-------5--|4---------------2--------------|
E|0-------0-----------4-------3--|2------------------------------|
  Closer                                  Let me  whisper in your
e|------- ------- ------- -------|------- ------- ------- -------|
B|-------------------------------|-------------------------------|
G|-------------------------------|-------------------------------|
D|--------------------4-------3--|2-------2-------4-------4------|
A|----------------6-------5------|4-------4-------6-------6------|
E|-------------------------------|-------------------------------|

  E                   G#m     Gm  F#m             B7
e|0------ 0---0-- ----4-- ----3--|2------ 2------ ------- -------|
B|0-------0---0-------4-------3--|2-------2-------0-------0------|
G|1-------1---1-------4-------3--|2-------2-------2-------2------|
D|2-------2---2-------6-------5--|4-------4-------1-------1------|
A|2-------2---2-------6-------5--|4-------4-------2-------2------|
E|0-------0---0-------4-------3--|2-------2----------------------|
  ear                                     Say the words you long to
e|------- ------- ------- -------|------- ------- ------- -------|
B|-------------------------------|-------------------------------|
G|-------------------------------|-------------------------------|
D|2-------2-----------4-------3--|2-------2-------4-------4------|
A|----------------6-------5------|4-------4-------6-------6------|
E|-------------------------------|-------------------------------|

  A                               B
e|0------ ----0-- ------- 0------|2------ ----2-- ------- 2------|
B|2-----------2-----------2------|4-----------4-----------4------|
G|2-----------2-----------2------|4-----------4-----------4------|
D|2-----------2-----------2------|4-----------4-----------4------|
A|0-----------0-----------0------|2-----------2-----------2------|
E|-------------------------------|-------------------------------|
  hear                                        I'm     in  love with 
e|------- ------- ------- -------|------- ------- ------- -------|
B|2-----------2-----------2------|0-----------0-----------0------|
G|2-----------2-----------2------|2-----------2-----------2------|
D|2-----------2-----------2------|1-----------1-----------1------|
A|0-----------0-----------0------|2-----------2-----------2------|
E|-------------------------------|-------------------------------|

  C#m                             F#m             B
e|4------ ------- ------- -------|2------ ------- 2------ -------|
B|5------------------------------|2---------------4--------------|
G|6------------------------------|2---------------4--------------|
D|6------------------------------|4---------------4--------------|
A|4------------------------------|4---------------2--------------|
E|-------------------------------|2------------------------------|
  you                     Oooooooooooooooooooooooooooooooooooh
e|------- ------- ------- -------|------- ------- ------- -------|
B|----------------5--------------|-------------------------------|
G|------------6-------6----------|-------------------------------|
D|--------6----------------------|-------------------------------|
A|----4--------------------------|-------------------------------|
E|-------------------------------|-------------------------------|    

  E                   G#m     Gm  F#m             B
e|0------ 0---0-- ----4-- ----3--|2------ ------- 2------ 2------|
B|0-------0---0-------4-------3--|2---------------4-------4------|
G|1-------1---1-------4-------3--|2---------------4-------4------|
D|2-------2---2-------6-------5--|4---------------4-------4------|
A|2-------2---2-------6-------5--|4---------------2-------2------|
E|0-------0---0-------4-------3--|2------------------------------|
  Listen                                  Do you  want to know a
e|------- ------- ------- -------|------- ------- ------- -------|
B|-------------------------------|-------------------------------|
G|-------------------------------|-------------------------------|
D|2-------2-----------4-------3--|2-------2-------4-------4------|
A|----------------6-------5------|4-------4-------6-------6------|
E|-------------------------------|-------------------------------|

  E                   G#m     Gm  F#m             B7
e|0------ 0------ ----4-- ----3--|2------ ------- ------- -------|
B|0-------0-----------4-------3--|2---------------0--------------|
G|1-------1-----------4-------3--|2---------------2--------------|
D|2-------2-----------6-------5--|4---------------1--------------|
A|2-------2-----------6-------5--|4---------------2--------------|
E|0-------0-----------4-------3--|2------------------------------|
  secret                                  Do you  promise  not to
e|------- ------- ------- -------|------- ------- ------- -------|
B|-------------------------------|-------------------------------|
G|-------------------------------|-------------------------------|
D|2-------2-----------4-------3--|2---------------1--------------|
A|----------------6-------5------|4---------------2--------------|
E|-------------------------------|-------------------------------|

  E                   G#m     Gm  F#m             Am
e|0------ 0------ ----4-- ----3--|2------ 2------ 5---5-- 5------|
B|0-------0-----------4-------3--|2-------2-------5---5---5------|
G|1-------1-----------4-------3--|2-------2-------5---5---5------|
D|2-------2-----------6-------5--|4-------4-------7---7---7------|
A|2-------2-----------6-------5--|4-------4-------7---7---7------|
E|0-------0-----------4-------3--|2-------2-------5---5---5------|
  tell,                   whoa    oh,             oh
e|------- ------- ------- -------|------- ------- ------- -------|
B|-------------------------------|-------------------------------|
G|-------------------------------|-------------------------------|
D|2-------2-----------4-------3--|2---------------2--------------|
A|----------------6-------5------|4---------------3--------------|
E|-------------------------------|-------------------------------|

  E                   G#m     Gm  F#m             B7
e|0------ ------- ----4-- ----3--|2------ ------- ------- -------|
B|0-------------------4-------3--|2---------------0--------------|
G|1-------------------4-------3--|2---------------2--------------|
D|2-------------------6-------5--|4---------------1--------------|
A|2-------------------6-------5--|4---------------2--------------|
E|0-------------------4-------3--|2------------------------------|
  Closer                                  Let me  whisper in your
e|------- ------- ------- -------|------- ------- ------- -------|
B|-------------------------------|-------------------------------|
G|-------------------------------|-------------------------------|
D|2-------2-----------4-------3--|2-------2-------4-------4------|
A|----------------6-------5------|4-------4-------6-------6------|
E|-------------------------------|-------------------------------|

  E                   G#m     Gm  F#m             B7
e|0------ 0------ ----4-- ----3--|2------ 2------ ------- -------|
B|0-------0-----------4-------3--|2-------2-------0-------0------|
G|1-------1-----------4-------3--|2-------2-------2-------2------|
D|2-------2-----------6-------5--|4-------4-------1-------1------|
A|2-------2-----------6-------5--|4-------4-------2-------2------|
E|0-------0-----------4-------3--|2-------2----------------------|
  ear                                     Say the words you long to
e|------- ------- ------- -------|------- ------- ------- -------|
B|-------------------------------|-------------------------------|
G|-------------------------------|-------------------------------|
D|2-------2-----------4-------3--|2-------2-------4-------4------|
A|----------------6-------5------|4-------4-------6-------6------|
E|-------------------------------|-------------------------------|

  A                               B
e|0------ ----0-- ------- 0------|2------ ----2-- ------- 2------|
B|2-----------2-----------2------|4-----------4-----------4------|
G|2-----------2-----------2------|4-----------4-----------4------|
D|2-----------2-----------2------|4-----------4-----------4------|
A|0-----------0-----------0------|2-----------2-----------2------|
E|-------------------------------|-------------------------------|
  hear                                        I'm     in  love with 
e|------- ------- ------- -------|------- ------- ------- -------|
B|2-----------2-----------2------|0-----------0-----------0------|
G|2-----------2-----------2------|2-----------2-----------2------|
D|2-----------2-----------2------|1-----------1-----------1------|
A|0-----------0-----------0------|2-----------2-----------2------|
E|-------------------------------|-------------------------------|

  C#m                             F#m             B
e|4------ ------- ------- -------|2---2-- 2------ 2------ -------|
B|5------------------------------|2---2---2-------4--------------|
G|6------------------------------|2---2---2-------4--------------|
D|6------------------------------|4---4---4-------4--------------|
A|4------------------------------|4---4---4-------2--------------|
E|-------------------------------|2---2---2----------------------|
  you                     Oooooooooooooooooooooooooooooooooooh
e|------- ------- ------- -------|------- ------- ------- -------|
B|----------------5--------------|-------------------------------|
G|------------6-------6----------|-------------------------------|
D|--------6----------------------|-------------------------------|
A|----4--------------------------|-------------------------------|
E|-------------------------------|-------------------------------|

  A               F#m             C#m         Bm
e|0------ 0------ 2------ 2------|4------ 4---2-- ----2-- 2------|
B|2-------2-------2-------2------|5-------5---3-------3---3------|
G|2-------2-------2-------2------|6-------6---4-------4---4------|
D|2-------2-------4-------4------|6-------6---4-------4---4------|
A|0-------0-------4-------4------|4-------4---2-------2---2------|
E|----------------2-------2------|-------------------------------|
  I've    known the secret for a  week or two

  A               F#m             C#m             Bm
e|0------ 0------ 2------ 2------|4------ 4------ 2------ -------|
B|2-------2-------2-------2------|5-------5-------3--------------|
G|2-------2-------2-------2------|6-------6-------4--------------|
D|2-------2-------4-------4------|6-------6-------4--------------|
A|0-------0-------4-------4------|4-------4-------2--------------|
E|----------------2-------2------|-------------------------------|
  Nobody          knows,          just    we      two           

  F#m                             B
e|2------ ----2-- ------- 2------|2------ ----2-- ------- 2------|
B|2-----------2-----------2------|4-----------4-----------4------|
G|2-----------2-----------2------|4-----------4-----------4------|
D|4-----------4-----------4------|4-----------4-----------4------|
A|4-----------4-----------4------|2-----------2-----------2------|
E|2-----------2-----------2------|-------------------------------|

  E                   G#m     Gm  F#m             B
e|0-----0 0------ ----4-- ----3--|2------ 2------ 2------ 2------|
B|0-----0-0-----------4-------3--|2-------2-------4-------4------|
G|1-----1-1-----------4-------3--|2-------2-------4-------4------|
D|2-----2-2-----------6-------5--|4-------4-------4-------4------|
A|2-----2-2-----------6-------5--|4-------4-------2-------2------|
E|0-----0-0-----------4-------3--|2-------2----------------------|
  Listen                                  Do you  want to know a
e|------- ------- ------- -------|------- ------- ------- -------|
B|-------------------------------|-------------------------------|
G|-------------------------------|-------------------------------|
D|2-------2-----------4-------3--|2-------2-------4-------4------|
A|----------------6-------5------|4-------4-------6-------6------|
E|-------------------------------|-------------------------------|

  E                   G#m     Gm  F#m             B7
e|0------ 0------ ----4-- ----3--|2------ ------- ------- -------|
B|0-------0-----------4-------3--|2---------------0--------------|
G|1-------1-----------4-------3--|2---------------2--------------|
D|2-------2-----------6-------5--|4---------------1--------------|
A|2-------2-----------6-------5--|4---------------2--------------|
E|0-------0-----------4-------3--|2------------------------------|
  secret                                  Do you  promise  not to
e|------- ------- ------- -------|------- ------- ------- -------|
B|-------------------------------|-------------------------------|
G|-------------------------------|-------------------------------|
D|2-------2-----------4-------3--|2-------2-------4-------4------|
A|----------------6-------5------|4-------4-------6-------6------|
E|-------------------------------|-------------------------------|

  E               G#m     Gm      F#m             Am
e|0------ 0------ 4------ 3------|2------ 2------ 5-----5 5------|
B|0-------0-------4-------3------|2-------2-------5-----5-5------|
G|1-------1-------4-------3------|2-------2-------5-----5-5------|
D|2-------2-------6-------5------|4-------4-------7-----7-7------|
A|2-------2-------6-------5------|4-------4-------7-----7-7------|
E|0-------0-------4-------3------|2-------2-------5-----5-5------|
  tell,                   whoa    oh,             oh
e|------- ------- ------- -------|------- ------- ------- -------|
B|-------------------------------|-------------------------------|
G|-------------------------------|-------------------------------|
D|2-------2-----------4-------3--|2---------------2--------------|
A|----------------6-------5------|4---------------3--------------|
E|-------------------------------|-------------------------------|

  E                   G#m     Gm  F#m             B
e|0------ 0------ ----4-- ----3--|2------ 2------ 2------ 2------|
B|0-------0-----------4-------3--|2-------2-------4-------4------|
G|1-------1-----------4-------3--|2-------2-------2-------2------|
D|2-------2-----------6-------5--|4-------4-------4-------4------|
A|2-------2-----------6-------5--|4-------4-------2-------2------|
E|0-------0-----------4-------3--|2-------2----------------------|
  Closer                                  Let me  whisper in your
e|------- ------- ------- -------|------- ------- ------- -------|
B|-------------------------------|-------------------------------|
G|-------------------------------|-------------------------------|
D|2-------2-----------4-------3--|2-------2-------4-------4------|
A|----------------6-------5------|4-------4-------6-------6------|
E|-------------------------------|-------------------------------|

  E                   G#m     Gm  F#m             B7
e|0------ 0------ ----4-- ----3--|2------ 2------ 2------ 2------|
B|0-------0-----------4-------3--|2-------2-------4-------4------|
G|1-------1-----------4-------3--|2-------2-------2-------2------|
D|2-------2-----------6-------5--|4-------4-------4-------4------|
A|2-------2-----------6-------5--|4-------4-------2-------2------|
E|0-------0-----------4-------3--|2-------2----------------------|
  ear                                     Say the words you long to
e|------- ------- ------- -------|------- ------- ------- -------|
B|-------------------------------|-------------------------------|
G|-------------------------------|-------------------------------|
D|2-------2-----------4-------3--|2-------2-------4-------4------|
A|----------------6-------5------|4-------4-------6-------6------|
E|-------------------------------|-------------------------------|

  A                               B
e|0------ ----0-- ------- 0------|2------ ----2-- ------- 2------|
B|2-----------2-----------2------|4-----------4-----------4------|
G|2-----------2-----------2------|4-----------4-----------4------|
D|2-----------2-----------2------|4-----------4-----------4------|
A|0-----------0-----------0------|2-----------2-----------2------|
E|-------------------------------|-------------------------------|
  hear                                        I'm     in  love with 
e|------- ------- ------- -------|------- ------- ------- -------|
B|2-----------2-----------2------|0-----------0-----------0------|
G|2-----------2-----------2------|2-----------2-----------2------|
D|2-----------2-----------2------|1-----------1-----------1------|
A|0-----------0-----------0------|2-----------2-----------2------|
E|-------------------------------|-------------------------------|

  C#m                             F#m             B7
e|4------ ------- ------- -------|2------ ------- 2------ -------|
B|5------------------------------|2---------------0--------------|
G|6------------------------------|2---------------2--------------|
D|6------------------------------|4---------------1--------------|
A|4------------------------------|4---------------2--------------|
E|-------------------------------|2------------------------------|
  you                     Oooooooooooooooooooooooooooooooooooh
e|------- ------- ------- -------|------- ------- ------- -------|
B|----------------5--------------|-------------------------------|
G|------------6-------6----------|-------------------------------|
D|--------6----------------------|-------------------------------|
A|----4--------------------------|-------------------------------|
E|-------------------------------|-------------------------------|    

  C#m                             F#m             B
e|4------ ------- ------- -------|2------ ------- 2------ -------|
B|5------------------------------|2---------------4--------------|
G|6------------------------------|2---------------4--------------|
D|6------------------------------|4---------------4--------------|
A|4------------------------------|4---------------2--------------|
E|-------------------------------|2------------------------------|
                          Oooooooooooooooooooooooooooooooooooh
e|------- ------- ------- -------|------- ------- ------- -------|
B|----------------5--------------|-------------------------------|
G|------------6-------6----------|-------------------------------|
D|--------6----------------------|-------------------------------|
A|----4--------------------------|-------------------------------|
E|-------------------------------|-------------------------------|    
                          ..........................Fade.........

  C#m                             F#m
e|4------ ------- ------- -------|2------ ------- 2------ -------|
B|5------------------------------|2---------------4--------------|
G|6------------------------------|2---------------4--------------|
D|6------------------------------|4---------------4--------------|
A|4------------------------------|4---------------2--------------|
E|-------------------------------|2------------------------------|
                          Oooooooooooooooooooooooooooooooooooh
e|------- ------- ------- -------|------- ------- ------- -------|
B|----------------5--------------|-------------------------------|
G|------------6-------6----------|-------------------------------|
D|--------6---------------6------|-------------------------------|
A|----4--------------------------|-------------------------------|
E|-------------------------------|-------------------------------|    
  ...............................................................

Аппликатуры аккордов

Аккорд Em
Аккорд Am
Аккорд G
Аккорд F
Аккорд B
Аккорд E
Аккорд G#m
Аккорд Gm
Аккорд F#m
Аккорд B7
Аккорд A
Аккорд C#m
Аккорд Bm

Видео Beatles Do You Want To Know A Secret

Beatles популярные подборы аккордов

Название композицииПросмотров
Beatles 2,952
Beatles 896
Beatles 846
Beatles 604
Beatles 470