Уважаемые пользователи, в данный момент ведутся работы по настройке мобильной версии сайта и поэтому часть функций не работает или работает не корректно.

Beatles - Don't Let Me Down, аккорды

  • 6,701
  • 0
  • 30 нояб. 1999
Прокрутка
Тон-сть
Шрифт
Intro:
e|------------------------------------------------
B|------------------------------------------------
G|------------------------------------------------
D|------4/9----9----9/11---------9---------7----6-
A|--------------------------9---------7-----------
E|------------------------------------------------

Chorus:
...me down (first time)
|--------------------------------------------
|--------------------------------------------
|------------11-----9--11P9H11--9--11P9--11--
|--------------------------------------------
|--------------------------------------------
|--------------------------------------------

...me down (second time)
|----------12P9-----------------------------
|----------------12--9----------------------
|-----------------------11--9------------9--
|------------------------------11--9H11-----
|-------------------------------------------
|-------------------------------------------

Verse:
...like she does
|--------------------------------------------------------------------------
|--------------------------------------------------------------------------
|-----------11---9---9---9---6---6---6---4---4---4---2---2---2-------------
|----------------------------------------------------------------4---4---2-
|--------------------------------------------------------------------------
|--------------------------------------------------------------------------

Аппликатуры аккордов

Видео Beatles Don't Let Me Down

Beatles популярные подборы аккордов

Название композицииПросмотров
Beatles 2,897
Beatles 870
Beatles 827
Beatles 568
Beatles 468