Уважаемые пользователи, в данный момент ведутся работы по настройке мобильной версии сайта и поэтому часть функций не работает или работает не корректно.

Beatles - Let It Be, аккорды

  • 9,340
  • 6
  • 30 нояб. 1999
Прокрутка
Тон-сть
Шрифт
Verse: x2
    C		    G                 Am             Fmaj7
E|----------------------------------------------------------------0-|
B|--1-------1-------3---------3------1--------1----------1----3-----|
G|------0-------0-------0---------0------2--------2----2--------2---|
D|----2-------2-------0---------0------2--------2----3------3-------|
A|--3-----3--------------------------0------0-----------------------|
E|------------------3------3----------------------------------------|

    C		    G                 F           C
E|-----------------------------------1-------------------------|
B|--1-------1-------3---------3----------1-1--1--1-------1-----|
G|------0-------0-------0---------0----2-------------0-------0-|
D|----2-------2-------0---------0----3-----2--0----2-------2---|
A|--3-----3--------------------------------------3-----3-------|
E|------------------3------3-----------------------------------|

Chorus:
    Am            G              Fmaj7          C
E|-----------------0----------------------0---------------------|
B|--1-------1--------------3------1---1-------1--1-------1------|
G|------2-------2------0-------0----2-------2--------0--------0-|
D|----2-------2------0-------0----3-----3----------2-------2----|
A|--0-----0--------------------------------------3-----3--------|
E|-----------------3-----3--------------------------------------|

    C              G              F            C
E|--------------------------------1-----1--1--------------------|
B|--1-------1------3-------3---------1---------1---------1------|
G|------0-------0------0-------0----2--------------0----------0-|
D|----2-------2------0-------0----3-----2--0-----2----------2---|
A|--3-----3------------------------------------3-------3--------|
E|-----------------3-----3--------------------------------------|

Verse: x2
    C		    G                 Am             Fmaj7
E|----------------------------------------------------------------0-|
B|--1-------1-------3---------3------1--------1----------1----3-----|
G|------0-------0-------0---------0------2--------2----2--------2---|
D|----2-------2-------0---------0------2--------2----3------3-------|
A|--3-----3--------------------------0------0-----------------------|
E|------------------3------3----------------------------------------|

    C		    G                 F           C
E|-----------------------------------1-------------------------|
B|--1-------1-------3---------3----------1-1--1--1-------1-----|
G|------0-------0-------0---------0----2-------------0-------0-|
D|----2-------2-------0---------0----3-----2--0----2-------2---|
A|--3-----3--------------------------------------3-----3-------|
E|------------------3------3-----------------------------------|

Chorus:
    Am            G              Fmaj7          C
E|-----------------0----------------------0---------------------|
B|--1-------1--------------3------1---1-------1--1-------1------|
G|------2-------2------0-------0----2-------2--------0--------0-|
D|----2-------2------0-------0----3-----3----------2-------2----|
A|--0-----0--------------------------------------3-----3--------|
E|-----------------3-----3--------------------------------------|

    C              G              F            C
E|--------------------------------1-----1--1--------------------|
B|--1-------1------3-------3---------1---------1---------1------|
G|------0-------0------0-------0----2--------------0----------0-|
D|----2-------2------0-------0----3-----2--0-----2----------2---|
A|--3-----3------------------------------------3-------3--------|
E|-----------------3-----3--------------------------------------|

Outro:                           C
E|---------------------------------|
B|-------------------------------1-|
G|--2----0--0--------------------0-|
D|--3----2--0--2-----------------2-|
A|-------------3---1--0----------3-|
E|-----------------------3--1------|

Аппликатуры аккордов

Аккорд C
Аккорд G
Аккорд Am
Аккорд Fmaj7
Аккорд F

Видео Beatles Let It Be

Beatles популярные подборы аккордов

Название композицииПросмотров
Beatles 3,079
Beatles 1,024
Beatles 783
Beatles 605
Beatles 487