Уважаемые пользователи, в данный момент ведутся работы по настройке мобильной версии сайта и поэтому часть функций не работает или работает не корректно.

Блондинка Ксю - Не прыгай, аккорды

  • 1,618
  • 0
  • 18 мая 2015
Прокрутка
Тон-сть
Шрифт
Настройка (6стая струна опущенна в ре): Ми, Си, Соль, Ре, Ля, Ре.

Интро
-----------------------------------
-----------------------------------
-2-1-------------------------------
-4-4-------------------------------
-----------------------------------
-----------------------------------

Куплет 1ый:
------------------------------------
------------------------------------
----------2-------------------------
-----0------0---0------4---7---4----
---4---4------4------5---5---5---5--
-4-----------------4----------------

------------------------------------
------------------------------------
---------5---------------1----------
-----6-----6---6-----4-----4---4----
---6---6-----6-----5---5-----5------
-6---------------0------------------
2 раза играется
______________________________________

-------------------------------------
-------------------------------------
-----6---4---------------6-----------
---4---4---4---4-----4-----4---4-----
-2-----------2-----5---5-----5-------
-----------------0-------------------

-------------------------------------
-------------------------------------
---------2----------------1----------
-----4-----4---4------2-----2---2----
---4---4-----4------2---2-----2------
-4----------------2------------------

-------------------------------------
-------------------------------------
-----6---4---------------1-----------
---4---4---4---4-----4-----4---4---4-
-2-----------2-----5---5-----5-----4-
-----------------0-----------------4-

Припев:
---------------------------------------
---------------------------------------
-6-6--------6-6---------6-6----------0-
-6-7--9--0--6-7--1--0---6-7--9--0--9-0-
-4-4--7--0--4-4--1--0---4-4--7--0--9-0-
-4-4--7--0--4-4--1--0---4-4--7--0--9-0-

Проигрыш (как интро)

Куплет 2ой:
(2 раза)
----------- ---------------------------
----------- ---------------------------
----------- -4--------4----------------
-4-4--6-0-- -4-0-4-2--4-0-4------------
-4-5--6-0-- -2-0-4-2--2-0-4------------
-4-4--6-0-- ---0-4-2----0-4------------

Припев 2.
-----------------------------------------
-----------------------------------------
-6-6--------6-6---------6-6----------0---
-6-7--9--0--6-7--1--0---6-7--9--0--9-0-2-
-4-4--7--0--4-4--1--0---4-4--7--0--9-0-2-
-4-4--7--0--4-4--1--0---4-4--7--0--9-0-2-

Бридж:
---------- ----------------------------
---------- ----------------------------
---6------ ----6-----------------------
-0-6-4-2-- --0-6-4---------------------
-0-4-4-2-- --0-4-4---------------------
-0---4-2-- --0---4---------------------

Припев.
Проигрыш (как интро).

Аппликатуры аккордов

Видео Блондинка Ксю Не прыгай

Блондинка Ксю популярные подборы аккордов

Название композицииПросмотров
Блондинка Ксю 38
Блондинка Ксю 22
Блондинка Ксю 19
Блондинка Ксю 12
Блондинка Ксю 12