Уважаемые пользователи, в данный момент ведутся работы по настройке мобильной версии сайта и поэтому часть функций не работает или работает не корректно.

Блондинка Ксю - Расскажите, птицы, аккорды

  • 3,175
  • 1
  • 10 сент. 2014
Прокрутка
Тон-сть
Шрифт
Вступление: F#5 F#5 H5 F#5

Басс на вступление:
E|---------------------------------|
B|---------------------------------|
G|---------------------------------|
D|---------------------------------|
A|---0-2-3-4-3-2-0---0-2-3-4-3-2-0-|
E|-2---------------2---------------|

E|---------------------------------|
B|---------------------------------|
G|---------------------------------|
D|---0-2-3-4-3-2-0-----------------|
A|-2-----------------0-2-3-4-3-2-0-|
E|-----------------2---------------|

F#5
Расскажите птицы что вас манит в высь
H5 (D5 E5)
Надо мною вы так дерзко вознеслись
E5 F#5 E5 F#5
Может потому вам так легко лететь
D5 E5
Что к успеху не стремитесь вы успеть
H5 C#5 D5 A5
Что не мучат вас обиды прошедших лет
H5 F#5 Ab5 C#5
Крылатых лет прекрасных лет

Припев:
Hm F#m
Полно летите летите
Hm F#m
Через полночь и солнце в зените
Hm C# F#m D
По куплету всему свету вы раздайте песню эту
Hm C# F#m
И дождей грибных серебрянные нити
Hm C# F#m D
По куплету всему свету вы раздайте песню эту
H5 C#5 F#5
И дождей грибных серебрянные нити

Расскажите птицы времечко пришло
Что планета наша хрупкое стекло
Чистые берёзы реки и поля
Сверху всё это нежнее хрусталя
Неужели мы услышим со всех сторон
Хрустальный звон прощальный звон

Припев

Аппликатуры аккордов

Аккорд F#5
Аккорд H5
Аккорд D5
Аккорд E5
Аккорд C#5
Аккорд A5
Аккорд Ab5
Аккорд Hm
Аккорд F#m
Аккорд C#
Аккорд D

Видео Блондинка Ксю Расскажите, птицы

Блондинка Ксю популярные подборы аккордов

Название композицииПросмотров
Блондинка Ксю 38
Блондинка Ксю 22
Блондинка Ксю 19
Блондинка Ксю 12
Блондинка Ксю 12