Уважаемые пользователи, в данный момент ведутся работы по настройке мобильной версии сайта и поэтому часть функций не работает или работает не корректно.

Элизиум - Куда теряется мечта, аккорды

  • 11,318
  • 7
  • 30 нояб. 1999
Прокрутка
Тон-сть
Шрифт
Вступление:
E|----------------------|
B|----------------------|
G|----------------------|x2
D|---7--8--7--5--7------|
A|--5-5-5-5-5-5-5-------|
E|----------------------|

Труба::
   D5    A#5   F5    C5         D5   A#5   F5      C5
E|--------------------------------------------------------|
B|--------------------------------------------------------|
G|-------------------------------5------------------------|
D|-7-0-7-8-0-8-7--7-7---8-7-5--7-0-7-8-0-8-7--7-7-5-8-7-5-|
A|--------------------------------------------------------|
E|--------------------------------------------------------|

1 Куплет:
D5                A#5        F5
В который раз мне снова не понять,
         C5       D5
Куда теряется мечта, 
D5            A#5           F5
куда уходит молодость и страсть,
     C5           D5
Где любовь и красота,
D5     A#5    F5
Куда уходит ночь,
       C5     D5
Куда уходит день, 
        A#5    F5
Где лезвие ножа,
 C5
Где свет, где тень.

Припев:
D5         A#5    F5     C5     
Солнце окрасит весок багряной краской,
D5         A#5      F5          C5     
Мир содрогнется, и быть больно перестанет,
D5   A#5       F5           C5     
Я очарован 100 лет той прекрасной СКАзкой
D5           A#5     F5        C5     
Что словной зыбкий мираж в пустыне тает

2 куплет:
D5      A#5        F5
В который раз мечта, 
         C5       D5
И в сотый раз идет ко дну,
D5                A#5        F5
В который раз забрезжит свет любви,
         C5       D5
И тут же ???ет  в темноту
D5     A#5    F5
Как лето в Январе,
       C5     D5
Как в решете вода,
        A#5    F5
Сжигает в топке дней 
   C5     
Свои года.

Припев:
D5         A#5    F5     C5     
Солнце окрасит весок багряной краской,
D5         A#5      F5          C5     
Мир содрогнется, и быть больно перестанет,
D5   A#5       F5           C5     
Я очарован 100 лет той прекрасной сказкой
D5           A#5     F5        C5     
Что словной зыбкий мираж в пустыне тает

D5  A#5   F5    C5
АААААААААААААААААА

Аппликатуры аккордов

Аккорд D5
Аккорд A#5
Аккорд F5
Аккорд C5

Видео Элизиум Куда теряется мечта

Элизиум популярные подборы аккордов

Название композицииПросмотров
Элизиум 214
Элизиум 182
Элизиум 164
Элизиум 162
Элизиум 152