Уважаемые пользователи, в данный момент ведутся работы по настройке мобильной версии сайта и поэтому часть функций не работает или работает не корректно.

Elvis Presley - Jailhouse Rock, аккорды

  • 3,906
  • 2
  • 26 нояб. 2015
Прокрутка
Тон-сть
Шрифт
Intro/Verse:
e|---------------------------|
B|---------------------------|
G|---------------------------|
D|-8-9----8-9----8-9----8-9--|
A|-8-9----8-9----8-9----8-9--|
E|-6-7----6-7----6-7----6-7--|
 
Chorus:
e|------------------------------------------------------------------|
B|------------------------------------------------------------------|
G|------------------------------------------------------------------|
D|---------2-2-4-2---------2-2-4-2----------------------------------|
A|-0-0-4-4---------0-0-4-4-----------------2-2-4-2---------2-2-4-2--|
E|---------------------------------0-0-4-4---------0-0-4-4----------|

e|----------------------------------------------------------------|
B|----------------------------------------------------------------|
G|----------------------------------------------------------------|
D|---------4-4-6-4---------2-2-4-2--------------------------------|
A|-2-2-6-6---------0-0-4-4-----------------2-2-4-2---------2-2/4--|
E|---------------------------------0-0-4-4---------0-0-4-4--------|

Solo:
e|-12-12-12-12-12-12-12-12-12-12-12------------------------------|
B|-12-12-12-12-12-12-12-12-12-12-12------------------------------|
G|-12-12-12-12-12-12-12-12-12-12-12--12-13-13-12-13-13-13-13-13--|
D|---------------------------------------------------------------|
A|---------------------------------------------------------------|
E|---------------------------------------------------------------|

e|------------------------------------------------|
B|------------------------------------------------|
G|-------------------------------1-----1---1-1--1-|
D|-------------------------------2-----2---2-2--2-|
A|-----5-----5------4-----4------2-----2---2-2--2-|
E|-7-7-7-7-7-7--5-5-5-5-5-5--0-0-0-0-0-0-0-0-0--0-|

Аппликатуры аккордов

Видео Elvis Presley Jailhouse Rock

Elvis Presley популярные подборы аккордов

Название композицииПросмотров
Elvis Presley 2,492
Elvis Presley 774
Elvis Presley 178
Elvis Presley 138
Elvis Presley 126