Уважаемые пользователи, в данный момент ведутся работы по настройке мобильной версии сайта и поэтому часть функций не работает или работает не корректно.

Eminem - Rain Man, аккорды

  • 1,528
  • 0
  • 02 янв. 2015
Прокрутка
Тон-сть
Шрифт
e|-----------------------------------------------------------0--------------|
B|---------------------------------------------------------8---7-8-7--------|
G|----5------------------5----------------5---------------------------------|
D|----5-------7---7------5-----7---7------5-----7---7-----------------------|
A|----3-------7---7------3-----7---7------3-----7---7-----------------------|
E|------------5---5------------5---5------------5---5-----------------------|

e|------------------------------------------------0--------------------------|
B|----16-----------16----------16---------------8---7-8-7--------------------|
G|---------------------------------------------------------------------------|
D|---------7---7--------7---7--------7---7-----------------------------------|
A|---------7---7--------7---7--------7---7-----------------------------------|
E|---------5---5--------5---5--------5---5-----------------------------------|
(repeat through the whole song)

Аппликатуры аккордов

Видео Eminem Rain Man

Eminem популярные подборы аккордов

Название композицииПросмотров
Eminem 337
Eminem 222
Eminem 181
Eminem 168
Eminem 112