Уважаемые пользователи, в данный момент ведутся работы по настройке мобильной версии сайта и поэтому часть функций не работает или работает не корректно.

Eminem - Nail In The Coffin, аккорды

  • 1,299
  • 0
  • 09 сент. 2015
Прокрутка
Тон-сть
Шрифт
e|--------------|-----------------|-----------------|-----------------|
B|--------------|-----------------|-----------------|-----------------|
G|--------------|-----------------|-----------------|-----------------|
D|--------------|-----------------|-----------------|-----------------|
A|------------4-|-------------7-6-|-4-6-6-6-4-4-6-4-|-----------------|
E|4-4-7-4-6-6---|-4-4-7-4-6-6-----|-----------------|-7-7-7-7-6-6-7-6-|

e|--------------|-----------------|-----------------|-----------------|
B|--------------|-----------------|-----------------|-----------------|
G|--------------|-----------------|-----------------|-----------------|
D|--------------|-----------------|-----------------|-----------------|
A|------------4-|-------------7-6-|-4-6-6-6-4-4-6-4-|-----------6-4---|
E|4-4-7-4-6-6---|-4-4-7-4-6-6-----|-----------------|-7-7-7-7-6-----7-|

Аппликатуры аккордов

Видео Eminem Nail In The Coffin

Eminem популярные подборы аккордов

Название композицииПросмотров
Eminem 338
Eminem 181
Eminem 172
Eminem 140
Eminem 120