Уважаемые пользователи, в данный момент ведутся работы по настройке мобильной версии сайта и поэтому часть функций не работает или работает не корректно.

Eminem - Hallie'S Song, аккорды

  • 1,353
  • 0
  • 12 сент. 2015
Прокрутка
Тон-сть
Шрифт
A C G E
E|------------|
B|------------|
G|-2--5-------|
D|-2--5--5--2-|
A|-0--3--5--2-|
E|-------3--0-|
 
E|---------------------------------------------------------------------------|
B|---------------------------------------------------------------------------|
G|---------------------------------------------------------------------------|
D|-7--9--10--12--10---9--12--10--9--9--10v--------14--12--10--12--10--12--9v-|
A|---------------------------------------------------------------------------|
E|---------------------------------------------------------------------------|

E|----------------------------------------------------------------------------|
B|----------------------------------------------------------------------------|
G|----------------------------------------------------------------------------|
D|-7--9--10--12--10---9--12--10--9--9--10v--------14--12--10--12--10--12--14v-|
A|----------------------------------------------------------------------------|
E|----------------------------------------------------------------------------|

Аппликатуры аккордов

Аккорд A
Аккорд C
Аккорд G
Аккорд E

Видео Eminem Hallie'S Song

Eminem популярные подборы аккордов

Название композицииПросмотров
Eminem 338
Eminem 181
Eminem 172
Eminem 140
Eminem 120