Уважаемые пользователи, в данный момент ведутся работы по настройке мобильной версии сайта и поэтому часть функций не работает или работает не корректно.

Enrique Iglesias - Be With You, аккорды

  • 5,931
  • 2
  • 30 нояб. 1999
Прокрутка
Тон-сть
Шрифт
Capo 4
 
Intro: 
e|---3---1---0--------------------------|
B|-------------3---3p1-3--3/5--5--------|
G|-0------------------------------------|
D|--------------------------------------|
A|--------------------------------------|
E|--------------------------------------|
 
e|---1/3--1--3/5--------------------0h1-0--|
B|---------------3-----1p0-----------------|
G|-0----------------------2----------------|
D|-----------------------------------------|
A|-----------------------------------------|
E|-----------------------------------------|
 
Interlude: Bm Bm Bm Bm
 
e|-------------|
B|-------------|
G|-------------|
D|-----------2-|
A|-0-2---3-----|
E|-------------| x2
 
Verse: 
D                 A
Monday night I feel so low
Bm                      F#m
Count the hours they go so slow
G
I know the sound of your voice
    Bm
Can save my soul
 
e|--------------0-------|
B|----0----1------------|
G|--2-------------------|
D|----------------------|
A|----------------------|
E|----------------------|
 
D                A
City lights, streets of gold
Bm                           F#m
Look out my window to the world below
 
e|---------3------------|
B|-----0h1--------------|
G|--2-------------------|
D|----------------------|
A|----------------------|
E|----------------------|
 
G
Moves so fast and it feels so cold
    Bm
And I'm all alone
 
G
Don't let me die
G
I'm losing my mind
G *
Baby just give me a sign
 
Chorus: 
    G               A
And now that you're gone
             Bm                  F#m
I just wanna be with you  (wanna be with you)
    G          A
And I can't go on
        Bm            F#m
I wanna be with you  (be with you)
      G
Wanna be with you
 
Interlude: Bm Bm Bm Bm
 
e|-----------------------------------------------|
B|-----------3/5--3-1-0------------------111/3-|
G|----------------------2------------------------|
D|---------2---------------------2---2/2-------|
A|-0--2--3---------------0--2--3-----------------|
E|-----------------------------------------------|
 
Verse 2: 
D                        A
I can't sleep and I'm up all night
Bm                       F#m
Through these tears I try to smile
 
e|-----------3----------|
B|-----0--1-------------|
G|--2-------------------|
D|----------------------|
A|----------------------|
E|----------------------|
 
G
I know the touch of your hand
   Bm
Can save my life

e|----------------------|
B|--0--1--3/5--3--1--1--|
G|----------------------|
D|----------------------|
A|----------------------|
E|----------------------|
 
G
Don't let me down
G
Come to me now
G *
I got to be with you some how
 
Chorus: 
    G               A
And now that you're gone
             Bm                  F#m
I just wanna be with you (wanna be with you)
    G          A
And I can't go on
        Bm            F#m
I wanna be with you (be with you)
      G
Wanna be with you
 
Solo: Bm Bm Bm Bm
 
e|--------------------------------------------------|
B|---------------------------------3/5-5-5-3-1/3----|
G|-------------4-5--2/4---------------------------|
D|---------2---------------------2------------------|
A|-0--2--3---------------0--2--3--------------------|
E|--------------------------------------------------|
 
A A G D A A
 
e|----1/3-3-3-1-0-1--8-121212-10-8-7/8---------------|
B|-----------------------------------------8---------|
G|---------------------------------------------------|
D|---------------------------------------------------|
A|---------------------------------------------------|
E|---------------------------------------------------|
 
Chorus:
    F *              G *
And now that you're gone
Am *              Em *
Who am I without you now
    G          A
And I can't go on
            Bm           F#m
I just wanna be with you (be with you)
 
Chorus: 
    G               A
And now that you're gone
             Bm                F#m
I just wanna be with you (wanna be with you)
    G          A
And I can't go on
        Bm          F#m
I wanna be with you (be with you)
 
    G               A
And now that you're gone
             Bm       F#m
I just wanna be with you
    G          A
And I can't go on
        Bm          F#m
I wanna be with you whaaaaaa
G
Just Wanna be with you
G
Wanna be with you

Комментарий автора

* = let ring

Аппликатуры аккордов

Аккорд Bm
Аккорд D
Аккорд A
Аккорд F#m
Аккорд G
Аккорд F
Аккорд Am
Аккорд Em

Видео Enrique Iglesias Be With You

Enrique Iglesias популярные подборы аккордов

Название композицииПросмотров
Enrique Iglesias 114
Enrique Iglesias 102
Enrique Iglesias 64
Enrique Iglesias 45
Enrique Iglesias 34