Уважаемые пользователи, в данный момент ведутся работы по настройке мобильной версии сайта и поэтому часть функций не работает или работает не корректно.

Enrique Iglesias - Be With You, аккорды

  • 1,965
  • 0
  • 30 нояб. 1999
Прокрутка
Тон-сть
Шрифт
Intro: 
e|---7--5--4h5--------------------------|
B|-------------7---7-5-7--7/9--9--------|
G|-4------------------------------------|
D|--------------------------------------|
A|--------------------------------------|
E|--------------------------------------|
 
e|---5/7--5--7/9---------------------------|
B|---------------7-----5-2-----9/10-9----|
G|-4---------------------------------------|
D|-----------------------------------------|
A|-----------------------------------------|
E|-----------------------------------------|
 
Interlude: 
e|-----------|
B|-----------|
G|-----------|
D|---------6-|
A|-4--6--7---|
E|-----------| x2
 
Verse: 
E              B
Monday night I feel so low
C#m                    Abm
Count the hours they go so slow
A
I know the sound of your voice
 C#m
Can save my soul
 
E            B
City lights, streets of gold
C#m                       Abm
Look out my window to the world below
A
Moves so fast and it feels so cold
C#m
And I'm all alone
 
A
Don't let me die
A
I'm losing my mind
B *
Baby just give me a sing
 
Chorus:
   A               B
And now that you're gone
            C#m         Abm
I just wanna be with you
   A          B
And I can't go on
        C#m       Abm
I wanna be with you
A
Wanna be with you
 
Interlude: 
e|-----------------------------------------------|
B|-----------7/9--7-5-4------------------555/7-|
G|----------------------6------------------------|
D|---------6---------------------6---6/6-------|
A|-4--6--7---------------4--6--7-----------------|
E|-----------------------------------------------|
 
Verse 2: 
E                    B
I can't sleep and I'm up all night
C#m                  Abm
Through these tears I try to smile
A
I know the touch of your hand
C#m
Can save my life
 
A
Don't let me down
A
Come to me now
B *
I got to be with you some how
 
Chorus: 
   A               B
And now that you're gone
            C#m         Abm
I just wanna be with you
   A          B
And I can't go on
        C#m       Abm
I wanna be with you
A
Wanna be with you
 
Solo: 
e|--------------------------------------------------|
B|---------------------------------7/9-9-9-7-5/7----|
G|-------------8-9--6/8---------------------------|
D|---------6---------------------6------------------|
A|-4--6--7---------------4--6--7--------------------|
E|--------------------------------------------------|
 
e|----5/7-7-7-5-4-5--12-161616-14-12-11/12-----------|
B|-----------------------------------------12--------|
G|---------------------------------------------------|
D|---------------------------------------------------|
A|---------------------------------------------------|
E|---------------------------------------------------|
 
Chorus: 
A                  B
And now that you're gone
C#m         Abm
Who am I without you now
A         B
I can't go on
        C#m         Abm
I just wanna be with you
 
Chorus: 
   A               B
And now that you're gone
            C#m         Abm
I just wanna be with you
   A          B
And I can't go on
        C#m     Abm
I wanna be with you
A
Wanna be with you...
 
   A               B
And now that you're gone
            C#m       Abm
I just wanna be with you
   A          B
And I can't go on
        C#m     Abm
I wanna be with you
A
Wanna be with you

Комментарий автора

* - only once

Аппликатуры аккордов

Аккорд E
Аккорд B
Аккорд C#m
Аккорд Abm
Аккорд A

Видео Enrique Iglesias Be With You

Enrique Iglesias популярные подборы аккордов

Название композицииПросмотров
Enrique Iglesias 114
Enrique Iglesias 102
Enrique Iglesias 64
Enrique Iglesias 45
Enrique Iglesias 34