Уважаемые пользователи, в данный момент ведутся работы по настройке мобильной версии сайта и поэтому часть функций не работает или работает не корректно.

Europe - Reason, аккорды

  • 1,152
  • 0
  • 13 фев. 2015
Прокрутка
Тон-сть
Шрифт
Intro:
E|------------------------------------| E|------------------------------------|
B|------------------------------------| B|------------------------------------|
G|-7--7-7--5-5--5--12--12-12-11-11-11-| G|-7--7-7--5-5--5--12--12-12-11-11-11-|
D|-7--7-7--5-5--5--12--12-12-11-11-11-| D|-7--7-7--5-5--5--12--12-12-11-11-11-|
A|-9--9-9--7-7--7--9---9--9--8--8--8--| A|-9--9-9--7-7--7--9---9--9--8--8--8--|
E|------------------------------------| E|------------------------------------|

Vers:
This is the way it goes all through the verse 
so just Play along with the verse
E|------------------------------------| E|------------------------------------|
B|------------------------------------| B|------------------------------------|
G|-7--7-7--5-5--5--12--12-12-11-11-11-| G|-7--7-7--5-5--5--12--12-12-11-11-11-|
D|-7--7-7--5-5--5--12--12-12-11-11-11-| D|-7--7-7--5-5--5--12--12-12-11-11-11-|
A|-9--9-9--7-7--7--9---9--9--8--8--8--| A|-9--9-9--7-7--7--9---9--9--8--8--8--|
E|------------------------------------| E|------------------------------------|

Ref:
Cuse there must be a reason, why you keeping me alive
E|------------------------------------| E|-----------------------|
B|------------------------------------| B|-----------------------|
G|------------------------------------| G|-----------------------|
D|---7-----------9---------------7----| D|-------7-------------7-|
A|---7-----------7---------------5----| A|-------9-------------7-|
E|---5--------------------------------| E|---------------------5-|
On borken days like this, yes there must be a reason, to hope a god exist
E|------------------------------------| E|--------------------------------|
B|------------------------------------| B|--------------------------------|
G|------------------------------------| G|--------------------------------|
D|-----9-----7--------7---------------| D|---------9--------------7-----7-|
A|-----7-----5--------7---------------| A|---------7--------------5-----7-|
E|--------------------5---------------| E|------------------------------5-|

Then Play this once more and then play this:

Solo:
E|-------------------------------------------|
B|-------------------------------------------|
G|--------7--9-10-----12--10--9----7--9-7-9--|
D|----7--------------------------------------|
A|-------------------------------------------|
E|-------------------------------------------|

E|----------------------------------------|
B|----------------------------------------|
G|-------7--9--10-----12--10--9---7-9-7-9-|
D|----7-----------------------------------|
A|----------------------------------------|
E|----------------------------------------|

E|-------------------------------------------|
B|-------------------------------------------|
G|--------7--9-10-----12--10--9----7--9-7-9--|
D|----7--------------------------------------|
A|-------------------------------------------|
E|-------------------------------------------|

E|-----------------------------------------|
B|-----------------------------------------|
G|-------7--9-10s7-----12--10--9---7-9-7-9-|
D|----7------------------------------------|
A|-----------------------------------------|
E|-----------------------------------------|

E|-------------------------------------------|
B|---10--9--10--12-10------------------------|
G|-------------------------------------------|
D|-------------------------------------------|
A|-------------------------------------------|
E|-------------------------------------------|

Аппликатуры аккордов

Видео Europe Reason

Europe популярные подборы аккордов

Название композицииПросмотров
Europe 393
Europe 47
Europe 44
Europe 44
Europe 40