Уважаемые пользователи, в данный момент ведутся работы по настройке мобильной версии сайта и поэтому часть функций не работает или работает не корректно.

Europe - Sucker, аккорды

  • 831
  • 0
  • 05 сент. 2015
Прокрутка
Тон-сть
Шрифт
Intro:
E|---------------------------------------| E-----------------------------------|
B|---------------------------------------| B-----------------------------------|
G|-6--6--8--8--6--8--8---8--8--8--8--8--8| G-8--8--8--8----6--6--8--8--6--8--8-|
D|-6--6--8--8--6--8--8---8--8--8--8--8--8| D-8--8--8--8----6--6--8--8--6--8--8-|
A|-4--4--6--6--4--6--6---6--6--6--6--6--6| A-6--6--6--6----4--4--6--6--4--6--6-|
E|---------------------------------------| E-----------------------------------|

E|----------------|
B|----------------|
G|----------------|
D|---9--9---------|
A|---9--9--8-8-8--|
E|---7--7--6-6--6-|

Verse:
Play this in the verse
E|---------------------------------------| E-----------------------------------|
B|---------------------------------------| B-----------------------------------|
G|-6--6--8--8--6--8--8---8--8--8--8--8--8| G-8--8--8--8----6--6--8--8--6--8--8-|
D|-6--6--8--8--6--8--8---8--8--8--8--8--8| D-8--8--8--8----6--6--8--8--6--8--8-|
A|-4--4--6--6--4--6--6---6--6--6--6--6--6| A-6--6--6--6----4--4--6--6--4--6--6-|
E|---------------------------------------| E-----------------------------------|

E|----------------|
B|----------------|
G|----------------|
D|---9--9---------|
A|---9--9--8-8-8--|
E|---7--7--6-6--6-|

Pre Chourse:
Making her way through the crowd, some thing is driwing her wild
E|-------------------------------------------| E-------------------------------|
B|-------------------------------------------| B-------------------------------|
G|----------------------------6--6--6--6-----| G--6--6--6--6--6--6--6--6--6--6-|
D|--6--6---6--6--6--6--6--6---6--6--6--6-----| D--6--6--6--6--6--6--6--6--6--6-|
A|--6--6---6--6--6--6--6--6---4--4--4--4-----| A--4--4--4--4--4--4--4--4--4--4-|
E|--4--4---4--4--4--4--4--4------------------| E-------------------------------|

Chorus:
Shes turning up the sterio, She wants every bo-dy to know
E|-------------------------------------------|
B|-------------------------------------------|
G|--6--6--------6--6-----10-10--10-10-10-6-6-|
D|--6--6--6--6--6--6-----10-10--10-10-8--6-6-|
A|--4--4--6--6--4--4-----8--8---8--8--8--4-4-|
E|--------4--4-------------------------------|

E|-----------------------------------------|
B|-----------------------------------------|
G|--6--6--------6--6-----10-10--11-10-8--6-|
D|--6--6--6--6--6--6-----10-10--11-10-8--6-|
A|--4--4--6--6--4--4-----8--8---9--8--6--4-|
E|--------4--4-----------------------------|
She make sure she`s a show
E|-------------------------------------------| E----------|
B|-------------------------------------------| B----------|
G|---6--6--------6--6--10---10---13---10-10-8| G----------|
D|---6--6--6--6--6--6--10---10---13---10-10-8| D--11-10-8-|
A|---4--4--6--6--4--4--8----8----11---8--8--6| A--11-10-8-|
E|---------4--4------------------------------| E--9--8--6-|

She`s a su-su-su-su-sucker for a guitar hero
E|-------------------------------------------|
B|-------------------------------------------|
G|---------8-8--8--8--8--8--8--8----11-11-11-|
D|---------8-8--8--8--8--8--8--8----11-11-11-|
A|---------6-6--6--6--6--6--6--6----8--8--8--|
E|-------------------------------------------|

E|---19b-19-17---------19b-18-17-----------|
B|-------------12b---------------19-18-17b-|
G|-----------------12----------------------|
D|-----------------------------------------|
A|-----------------------------------------|
E|-----------------------------------------|

Then play this once more and then play this:
Solo:
E|--------------------------------------------| E-----------------------|
B|--------------------------------------------| B-----------------------|
G|17-17-17-15-15-13-13-12-12-10-10-8-8-7-7-5-5| G-17--18--15--15--14-14-|
D|--------------------------------------------| D-----------------------|
A|--------------------------------------------| A-----------------------|
E|--------------------------------------------| E-----------------------|

E|--------------------------------------------| E-----------------------|
B|--------------------------------------------| B-----------------------|
G|17-17-17-15-15-13-13-12-12-10-10-8-8-7-7-5-5| G-17--18--20--18--17-15-|
D|--------------------------------------------| D-----------------------|
A|--------------------------------------------| A-----------------------|
E|--------------------------------------------| E-----------------------|

Аппликатуры аккордов

Видео Europe Sucker

Europe популярные подборы аккордов

Название композицииПросмотров
Europe 440
Europe 64
Europe 41
Europe 38
Europe 32