Уважаемые пользователи, в данный момент ведутся работы по настройке мобильной версии сайта и поэтому часть функций не работает или работает не корректно.

Фактор 2 - Весна, аккорды

  • 94,661
  • 82
  • 30 нояб. 1999
Прокрутка
Тон-сть
Шрифт
Вступление:
    Bm                A              
E||-----------------|---------------|
B||---------5-------|---------------|
G||-4---4-6---7-6-4-|---------------|
D||---4-------------|-7-------------|
A||-----------------|------7-4------|
E||-----------------|----------5----|

 G                 F#7
-----------------|--------------------|
-----------------|--------------------|
-----------------|--------------------| 
-5---5---5---7-5-|-4h5p4-2-4h5p4-2-4--| x2 
---5---5---------|--------------------|
-----------------|--------------------|

  Bm                    A                         
|-------------9-10-11-|-12-10-9----9-------------|
|-12----11-12---------|---------12---12-10-12-10-|
|---------------------|--------------------------|
|---------------------|--------------------------|
|---------------------|--------------------------|
|---------------------|--------------------------|
                                              
 G                      F#7
----------------------|--------------------------------------------|
----------10-12-10----|---------------------------------------9-11-|
-12----12----------12-|-11h12p11-9-11h12p11-9-11---------9-11------|
----------------------|--------------------------9-11-12-----------|
----------------------|--------------------------------------------|
----------------------|--------------------------------------------|
                                                                                                     
  Bm                          A         G                                   
|----------------10-9-10-9--|---12----|-10-9-7-10-9-7-10-9-7-10-9-7-10-9-7-|
|-12--12-10-12--------------|-тремоло-|------------------------------------|
|---------------------------|---------|------------------------------------|
|---------------------------|---------|------------------------------------|
|---------------------------|---------|------------------------------------|
|---------------------------|---------|------------------------------------|

 F#7
-12-10-9-----------------------------------||
---------12-11-----------------------------||
---------------12-11-9---------------------||
-----------------------12-11-9-8-----------||
---------------------------------10-9----9-||
--------------------------------------12---||

       Bm
Пепел падает на пальцы, обжигая плоть мою
      Bm
Ты торопишься на танцы, где тебя давно я жду 
        Em                     A
Под открытым небом пляшет озорная молодежь
        Em         A           Bm
На танцполе все забито не пройдешь

       Bm
За пультом диджейским пальцы гнет продвинутый ди-джей
       Bm
Он сейчас немного занят, эй девчонка не робей
        Em                     A
Незнакомка рядом трется, я б хотел ее обнять 
        Em         A         Bm
От греха подальше надо убегать.

Припев:
	          Em           A           
	Опять врывается весна, и созрели семена.   
	Bm                                          
	Я  прошу тебя давай, собирать мой урожай,   
	          Em           A           
	Орудие труда ты получишь без труда, а-а...  
	Bm                              
	Я  прошу тебя давай, собирать мой урожай,   
	          Em           A        
	Орудие труда ты получишь без труда, а-а...  

       Bm
Вот и ты проходишь в юбке уже моего ремня
       Bm
Лучше б заявилась в шубке, кривоногая моя 
        Em                     A
Вызывающий наряд твой убивает пацанов
        Em         A           Bm
Черезчур похабно, Маша, нету слов

       Bm
Познакомился намедни в Интернете я с тобой,
       Bm
Ты мне показалась стройной королевой молодой,
        Em                     A
А когда тебя увидел, захотелось мне орать
        Em         A           Bm
Надо ноги делать, надо убегать.

Припев:
	          Em           A           
	Опять врывается весна, и созрели семена.   
	Bm                                          
	Я  прошу тебя давай, собирать мой урожай,   
	          Em           A           
	Орудие труда ты получишь без труда, а-а...  
	Bm                              
	Я  прошу тебя давай, собирать мой урожай,   
	          Em           A        
	Орудие труда ты получишь без труда, а-а...  

Проигрыш:
    Bm                A               G                 F#7
E||-----------------|---------------|-----------------|--------------------||
B||-7-5-7-5-7---8-7-|-5-3-5-3-5-----|-3-2-3-2-3---5-3-|-2h3p2-0-2----------||
G||-----------------|---------------|-----------------|------------4-3-----||
D||-----------------|---------------|-----------------|----------------5-4-||
A||-----------------|---------------|-----------------|--------------------||
E||-----------------|---------------|-----------------|--------------------||

Припев:
	          Em           A           
	Опять врывается весна, и созрели семена.   
	Bm                                          
	Я  прошу тебя давай, собирать мой урожай,   
	          Em           A           
	Орудие труда ты получишь без труда, а-а...  
	Bm                              
	Я  прошу тебя давай, собирать мой урожай,   
	          Em           A        
	Орудие труда ты получишь без труда, а-а...  

Аппликатуры аккордов

Аккорд Bm
Аккорд A
Аккорд G
Аккорд F#7
Аккорд Em

Видео Фактор 2 Весна

Фактор 2 популярные подборы аккордов

Название композицииПросмотров
Фактор 2 7,432
Фактор 2 1,687
Фактор 2 1,366
Фактор 2 1,304
Фактор 2 1,187