Уважаемые пользователи, в данный момент ведутся работы по настройке мобильной версии сайта и поэтому часть функций не работает или работает не корректно.

Год Змеи - 5 ml, аккорды

  • 11,234
  • 22
  • 23 окт. 2016
Прокрутка
Тон-сть
Шрифт
Вступление:
E||-------------------------|--------------------/7--5~-|
B||--/8----8--7--8----8--7--|--/10--8----5~-------------|
G||-------------------------|---------------------------|
D||-------------------------|---------------------------|
A||-------------------------|---------------------------|
E||-------------------------|---------------------------|

-L------------/7-----|-------------------------|-----------------------|
------------------7~-|-L--L--L--7--8--10--8--7-|-/8----8--7--8----8--7-|
---------------------|-------------------------|-----------------------|
---------------------|-------------------------|-----------------------|
---------------------|-------------------------|-----------------------|
---------------------|-------------------------|-----------------------|

-------------------/7--5~-|-L------------/8--7~-|
-/10--8----5~-------------|---------------------|
--------------------------|---------------------|
--------------------------|---------------------|
--------------------------|---------------------|
--------------------------|---------------------|

-L--L--L--7--8--10--8--7-||
-------------------------||
-------------------------||
-------------------------||
-------------------------||
-------------------------||

Em C
1. Из крана капля на стекло
D Bm
Разбудит звоном город спящий,
Em C
Но город тот не настоящий,
D Bm
Его придумал ты…
Em C
Легко смотреть,
D Bm
Как приближаешь смерть,
Em C
Одним движеньем рук,
D Bm
Одним движеньем губ…

Припев:
Em C
А мы с тобой наполним шприц,
D Bm
Нам на двоих – 5 единиц…
Em C
И будет нам легко смотреть
D Bm
На смерть, на смерть…

Em C
2. А где-то в розовой пыли
D Bm
Ложится яркий свет на стены…
Em C
На стенах руки, пальцы, вены
D Bm
Рисует Сальвадор Дали… 

Припев:
Em C
А мы с тобой наполним шприц,
D Bm
Нам на двоих – 5 единиц…
Em C
И будет нам легко смотреть
D Bm
На смерть, на смерть…

Аппликатуры аккордов

Аккорд Em
Аккорд C
Аккорд D
Аккорд Bm

Видео Год Змеи 5 ml

Год Змеи популярные подборы аккордов

Название композицииПросмотров
Год Змеи 3,527
Год Змеи 715
Год Змеи 328
Год Змеи 150
Год Змеи 95