Уважаемые пользователи, в данный момент ведутся работы по настройке мобильной версии сайта и поэтому часть функций не работает или работает не корректно.

HammAli & Navai - Птичка, аккорды

Прокрутка
Тон-сть
Шрифт
Каподастр на 8 ладу. Играется перебором

-----------------0-----------0-------------------------------------------------
------------0------------0-----------0--------------2----------2---------------
------------------------------------------------4-----------4-----------4------
--------2-----------2-----------2----------------------------------------------
--------------------------------------------4-----------4-----------4----------
-------------------------------------------------------------------------------

-------------------------------------------------------------------------------------
----------------3---------------------2--------------------0-----------0-------------
----------4---------------------0---------------------0------------0----------0------
-------------------------------------------------------------------------------------
-----5----------------5----4--------------4----2-------------2-----------2-----------
-------------------------------------------------------------------------------------

Из блокнота в мусорку
Листики как в пустоту
И опять на кухне её осень
Дождь холодный по щекам
Наберёт воды в стакан
Но цветок не поливает вовсе
Номер в блок и сердце в блок
Новый жизненный урок
Ты себя влюбляться не просила
На двери опять замок
Чувства в дым под потолок
И его портрет повешен криво
Раз-два-три, кавычки, сигарету спичкой
И дотла сжигаются совместные альбомы
Только вот привычка, ты к нему как птичка
Позовёт и ты опять сорвешься по любому
Знаешь, дура потому что
По ночам в подушку плачет
И опять скучает о нём
Не звонит и пусть
Но вновь на сердце пусто
Плачет и опять скучает о нём
Скучает о нём
Дура потому что
Ты его игрушка
Скучает о нём
Дура потому что
Опять в эту ловушку
Две стены и потолок
Антидепрессант в залог
Мысленно к виску курок
Да как он мог? Да как он мог?
А ты ему секреты в раз
За минуту сотни фраз
А он с другой, как и с тобой
Совсем другой, совсем не твой
Отпускать так сложно
Лезешь вон из кожи
Ты себя
Ты себя влюбляться не просила
И остывший кофе вновь
Напомнит тебе про него
Про него
Себе ты обещала - будешь сильной
Раз-два-три, кавычки, сигарету спичкой
И дотла сжигаются совместные альбомы
Только вот привычка, ты к нему как птичка
Позовёт и ты опять сорвешься по любому
Знаешь, дура потому что
По ночам в подушку плачет
И опять скучает о нём
Не звонит и пусть
Но вновь на сердце пусто
Плачет и опять скучает о нём
Скучает о нём
Дура потому что
Ты его игрушка
Скучает о нём
Дура потому что
Опять в эту ловушку
Раз-два-три, кавычки, сигарету спичкой
И дотла сжигаются совместные альбомы
Только вот привычка, ты к нему как птичка
Позовёт и ты опять сорвёшься по любому 

Аппликатуры аккордов

Видео HammAli & Navai Птичка

HammAli & Navai популярные подборы аккордов

Название композицииПросмотров
HammAli & Navai 2,810
HammAli & Navai 942
HammAli & Navai 844
HammAli & Navai 575
HammAli & Navai 460