Уважаемые пользователи, в данный момент ведутся работы по настройке мобильной версии сайта и поэтому часть функций не работает или работает не корректно.

Ленинград - Хуй в пальто, аккорды

  • 7,897
  • 7
  • 02 марта 2015
Прокрутка
Тон-сть
Шрифт
Fm
Я приполз домой
G#
И звоню в звонок,
Fm
Блюю, шатаюсь,
G#
Насквозь промок.
 
Fm
А ты мне из-за двери:
G#
- А это, бля, кто?
Fm
А я ответил:
G#
- Твой хуй в пальто!

Riff 2:
Fm G#
e|----------------------------------|
B|----------------------------------|
G|------------------------1-3-1-4-1-|
D|-3-3-3--3-3-3-3--1-1--1-----------| x4
A|----------------------------------|
E|----------------------------------|
(Че-Че-Че-Чекитаут-Йо!)

Riff 1:
Fm G#
e|---------------------------------|
B|-----1-------1-------1-----------|
G|---1---1---1---1---1---1-3-1-4-1-|
D|-3-------3-------1---------------| x4
A|---------------------------------|
E|---------------------------------|
(после каждой сыгранной ноты надо приглушать
струну немного отпуская палец левой руки)

Fm
Ползу домой, 
G#
Ползу домой,
Fm
Звоню в звонок,
G#
Я весь промок!

Fm
А ты мне из-за двери:
G#
- А это, бля, кто?
Fm
А я ответил:
G#
- Твой хуй в пальто!

Riff 2:
Fm G#
e|----------------------------------|
B|----------------------------------|
G|------------------------1-3-1-4-1-|
D|-3-3-3--3-3-3-3--1-1--1-----------| x4
A|----------------------------------|
E|----------------------------------|

Bass Riff:
Fm G#
e|------------------------------------|
B|------------------------------------|
G|------------------------------------|
D|------------------------------------|
A|-----3--------3--------3----1---2---|
E|-1-4---4--1-4---4----4---4----4---4-|


Трубное соло:
Fm G#
e|--------------------------------------------|
B|--------------------------------------------|
G|--------------------------------------------|
D|------------3---3---3-----------------------| x3
A|-------1--3---3---3----3-1-----1--3-1-----1-|
E|-1-3-4---------------------4-3--------4-3---|

G#
Я хуй в пальто!

Riff 2:
Fm G#
e|----------------------------------|
B|----------------------------------|
G|------------------------1-3-1-4-1-|
D|-3-3-3--3-3-3-3--1-1--1-----------| x4
A|----------------------------------|
E|----------------------------------|

Аппликатуры аккордов

Аккорд Fm
Аккорд G#

Видео Ленинград Хуй в пальто

Ленинград популярные подборы аккордов

Название композицииПросмотров
Ленинград 826
Ленинград 665
Ленинград 600
Ленинград 472
Ленинград 455