Уважаемые пользователи, в данный момент ведутся работы по настройке мобильной версии сайта и поэтому часть функций не работает или работает не корректно.

Ленинград - Света, аккорды

  • 6,677
  • 4
  • 30 нояб. 1999
Прокрутка
Тон-сть
Шрифт
Intro:                                                   
e||---------------0-------------------------||
B||-----3-----------0-------2-----5-p-4-p-3-|| 
G||---4---4-----0---------3---3-------------||  
D||-4---------2---------4-------------------||  
A||-----------------------------------------||
E||-----------------------------------------||

   Bm        Em        F#                                 
||---------------0-----2-||
||-----3-----------0---2-||  
||---4---4-----0-------3-|| 
||-4---------2---------4-||
||---------------------4-||
||---------------------2-||

Bm        Em        F#           Bm
На скамеечке вдвоем мы с тобой сидим
Bm        Em            F#   Bm
Разные слова друг-другу говорим.
G         A  
Я купил тебе конфеты
D          F#
Ты люби меня за это.

Bm      F#
Света! Света!
Bm G F# Bm Bm Bm
Света! 

Bm        Em        F#           Bm
Летний сад закрыт давно и потушен свет 
Bm        Em        F#         Bm
Защитит нас от врага папин пистолет
G         A  
На последний рубль Света
D          F#
Я купил тебе конфеты.

Bm      F#
Света! Света!
Bm G F# Bm Bm Bm
Света! Света!

Проигрыш: D A Bm F# G G# A
          D A Bm F# G G# A

Bm      F#
Света! Света!
Bm     G  F# Bm Bm Bm
Света! Света!

Время куплета играть Intro:
e||---------------0-------------------------||
B||-----3-----------0-------2-----5-p-4-p-3-|| 
G||---4---4-----0---------3---3-------------||  
D||-4---------2---------4-------------------||  
A||-----------------------------------------||
E||-----------------------------------------||

   Bm        Em        F#                                 
||---------------0-----2-||
||-----3-----------0---2-||  
||---4---4-----0-------3-|| 
||-4---------2---------4-||
||---------------------4-||
||---------------------2-||
Не смотри ты Света так на мой наган
Я обычный питерский дворовый хулиган

G             A  
На последний рубль Света
D          F#
И люби меня за это.

Bm      F#
Света! Света!
Bm     G  F# Bm Bm Bm
Света! Света!

Аппликатуры аккордов

Аккорд Bm
Аккорд Em
Аккорд F#
Аккорд G
Аккорд A
Аккорд D
Аккорд G#

Видео Ленинград Света

Ленинград популярные подборы аккордов

Название композицииПросмотров
Ленинград 875
Ленинград 684
Ленинград 591
Ленинград 463
Ленинград 444