Уважаемые пользователи, в данный момент ведутся работы по настройке мобильной версии сайта и поэтому часть функций не работает или работает не корректно.

Ленинград - Прогноз погоды, аккорды

  • 7,042
  • 8
  • 20 сент. 2015
Прокрутка
Тон-сть
Шрифт
Intro + solo: Fm Bm C7
e|--------|---------------------------|
B|--------|---------------------------|
G|--------|---------------------------|
D|--------|---------------------------|
A|--3-1---|-3-1---4------------3------| x3
E|------4-|-----4------3-3-3-3---4-1--|

   Fm
По телеку идёт прогноз погоды
   Fm
Диктор всех поздравил с новым годом
  Bm
А ты мне бухнуть не даёшь ни фига
   C7         Fm
У нас в отношениях сплошная пурга

e|--------|---------------------------|
B|--------|---------------------------|
G|--------|---------------------------|
D|--------|---------------------------|
A|--3-1---|-3-1---4------------3------| x3
E|------4-|-----4------3-3-3-3---4-1--|
Пурга

  Fm
По телеку идёт погоды прогноз
  Fm
У нас в отношениях серьезный мороз
  Bm
А если прикинуть по Цельсию бля
   C7         Fm
К тебе охладел я почти 

e|--------|---------------------------|
B|--------|---------------------------|
G|--------|---------------------------|
D|--------|---------------------------|
A|--3-1---|-3-1---4------------3------| x3
E|------4-|-----4------3-3-3-3---4-1--|
До нуля

  Bm
Не надо истерик, вот этих, бля, слёз
   C7         Fm
Это всего лишь погоды прогноз

Аппликатуры аккордов

Аккорд Fm
Аккорд Bm
Аккорд C7

Видео Ленинград Прогноз погоды

Ленинград популярные подборы аккордов

Название композицииПросмотров
Ленинград 875
Ленинград 684
Ленинград 591
Ленинград 463
Ленинград 444