Уважаемые пользователи, в данный момент ведутся работы по настройке мобильной версии сайта и поэтому часть функций не работает или работает не корректно.

Ленинград - Злые пули, аккорды

  • 3,532
  • 0
  • 11 июля 2016
Прокрутка
Тон-сть
Шрифт
Интро:
 Am 
 E |----------------|
 B |----1-3-3b4-----|
 G |-2--------------|
 D |----------------|
 A |----------------|
 E |----------------|

 Am 
Над головами пули-пули,
 Am  E  Am 
Пули-пули все летят
 Am 
И о любви нам, о любви нам,
 Am  E  Am 
О любви нам говорят.

 F 
Вот полюбила пуля парня -
 G 
Аж до сердца проняла
 G  рифф
И он ушел с ней, не смотря,
 Am  E  Am 
Что дома барышня ждала.

Над головами пули-пули,
Пули-пули все летят
И о любви нам, о любви нам,
О любви нам говорят.

А пуля любит, пуля любит
С поцелуйчиком, взасос.
Будь ты хоть парень, хоть девчонка
Иль почти молокосос.

Аутро:
 Am  Dm 
 E |---------------------------------1------------|
 B |----1b2-----1-3b4-1---1----------3------------|
 G |-2--------2---------2---2-1-0----2------------|
 D |---------------------------------0------------|
 A |----------------------------------------------|
 E |----------------------------------------------|

 G  рифф (афигенный рифф :)
 G  Am 
 E |------------------|
 B |---------5---5----|
 G |---------5---5----|
 D |---------7---7----|
 A |---------7---7----|
 E |-3-3-4-5---5------|

Аппликатуры аккордов

Аккорд Am
Аккорд E
Аккорд B
Аккорд G
Аккорд D
Аккорд A
Аккорд F
Аккорд Dm

Видео Ленинград Злые пули

Ленинград популярные подборы аккордов

Название композицииПросмотров
Ленинград 875
Ленинград 684
Ленинград 591
Ленинград 463
Ленинград 444