Уважаемые пользователи, в данный момент ведутся работы по настройке мобильной версии сайта и поэтому часть функций не работает или работает не корректно.

Ленинград - Мне бы в небо, аккорды

  • 25,068
  • 11
  • 19 июля 2016
Прокрутка
Тон-сть
Шрифт
Бас:
1|-------------------------------------------------------------|
2|------5-5-5--------------------------------------------------|
3|-3-3--------------6-6-6-6-6-------3-3-3-3-------5-5-5-5------|
4|-------------4-4-------------1-1-----------3-3---------------|

Ритм:
1|--3--4--0--3--|
2|--4--4--0--3--|
3|--5--5--0--4--|
4|--5--6--3--5--|
5|--3--6--3--5--|
6|--3--4--1--3--|

Соло:
1|-------------------------------------------------------------|
2|-------------------------------------------------------------|
3|--5--7--8--5--5--7--8--5--5--7--8--5--5--7--8--4--8--7-------|
4|-------------------------------------------------------------|
5|-------------------------------------------------------------|
6|-------------------------------------------------------------|

Комментарий автора

Текст: Руки, ноги дэнс, голова бум-бум-бам Мои мозги похожи на кусок баблгам Можно жить так, но лучше ускориться Я лично бухаю, а кто-то колется Припев: Мне бы, мне бы, мне бы, в небо Здесь я был, а там я не был Мне бы, мне бы, мне бы, в небо Здесь я был, а там я не был Новые районы, дома как коробки Хочешь жить здесь - набивай кулаки Кто-то жрет таблетки, а кто-то колется Я лично бухаю, но могу ускориться Припев: Мне бы, мне бы, мне бы, в небо Здесь я был, а там я не был Мне бы, мне бы, мне бы, в небо Здесь я был, а там я не был Все это похоже на какую-то разводку Наркотики нельзя, но можно водку Газеты и журналы печатают муру Дельфин будет жить, а я умру Припев: Мне бы, мне бы, мне бы, в небо Здесь я был, а там я не был Мне бы, мне бы, мне бы, в небо Здесь я был, а там я не был Путевка в небо выдается очень быстро Вышел на улицу, случайный выстрел Можно ждать его, но лучше ускориться Я лично бухаю, а кто-то колется. Припев: Мне бы, мне бы, мне бы, в небо Здесь я был, а там я не был Мне бы, мне бы, мне бы, в небо Здесь я был, а там я не был

Аппликатуры аккордов

Видео Ленинград Мне бы в небо

Ленинград популярные подборы аккордов

Название композицииПросмотров
Ленинград 811
Ленинград 676
Ленинград 599
Ленинград 475
Ленинград 468