Уважаемые пользователи, в данный момент ведутся работы по настройке мобильной версии сайта и поэтому часть функций не работает или работает не корректно.

Ленинград - Хуямба, аккорды

  • 55,918
  • 59
  • 30 нояб. 1999
Прокрутка
Тон-сть
Шрифт
...Намба, Мамба, Хуямба...
   Уаааа!

Intro:
   G                         Cm
e|------------------------||------------------------|
B|------------------------||------------------------|
G|---7-4-4----------------||---8-5-5----------------|
D|-5-------5-5--5-6-5-6-5-||-5-------5-5--5-6-5-6-5-|
A|------------------------||------------------------|
E|------------------------||------------------------|
   G                        Cm Cm Cm
e|------------------------||------------------------|
B|---6--------------------||------------------------|
G|-----7-7----------------||-5-5-5------------------|
D|-5-------5-5--5-6-5-6-5-||------------------------|
A|------------------------||------------------------|
E|------------------------||------------------------|

    G 
I. Вы хочете песен (Да!), их есть у меня! (Давай!)
   Cm
   Я переору любого соловья! (Давай!)
       G
   Я старый металлист (Оп!), тусовщик и стиляга... (Давай!)
      Cm
   А щас будет злая и матерая соляга! Вау!

Guitar Solo:
e|------------------------||------------------------|
B|------------------------||------------------------|
G|---7-4-4----------------||---7-4-4----------------|
D|-5-------5-5--5-6-5-6-5-||-5-------5-5--5-6-5-6-5-|
A|------------------------||------------------------|
E|------------------------||------------------------|

e|------------------------||------------------------|
B|---6--------------------||------------------------|
G|-----7-7----------------||-5-5-5------------------|
D|-5-------5-5--5-6-5-6-5-||------------------------|
A|------------------------||------------------------|
E|------------------------||------------------------|
  ...Magic people! ...Voodoo people!

И заново Intro:
   G                         Cm
e|------------------------||------------------------|
B|------------------------||------------------------|
G|---7-4-4----------------||---8-5-5----------------|
D|-5-------5-5--5-6-5-6-5-||-5-------5-5--5-6-5-6-5-|
A|------------------------||------------------------|
E|------------------------||------------------------|
   G                        Cm Cm Cm
e|------------------------||------------------------|
B|---6--------------------||------------------------|
G|-----7-7----------------||-5-5-5------------------|
D|-5-------5-5--5-6-5-6-5-||------------------------|
A|------------------------||------------------------|
E|------------------------||------------------------|

    G 
II. Вы хочете песен (Да!), их есть у меня! (Давай!)    
    Cm
    Пусть я пьяный в жопу как последняя свинья!
    G 
    И пусть уже давно не стоит моя "шняга"! (Е-е!)
    Cm
    А щас будет злая и матерая соляга! (Давай! Давай! Давай!)
 
Guitar Solo:
e|------------------------||------------------------|
B|------------------------||------------------------|
G|---7-4-4----------------||---7-4-4----------------|
D|-5-------5-5--5-6-5-6-5-||-5-------5-5--5-6-5-6-5-|
A|------------------------||------------------------|
E|------------------------||------------------------|

e|------------------------||------------------------|
B|---6--------------------||------------------------|
G|-----7-7----------------||-5-5-5------------------|
D|-5-------5-5--5-6-5-6-5-||------------------------|
A|------------------------||------------------------|
E|------------------------||------------------------|
  ...Magic people! ...Voodoo people!

И заново Intro:
   G                         Cm
e|------------------------||------------------------|
B|------------------------||------------------------|
G|---7-4-4----------------||---8-5-5----------------|
D|-5-------5-5--5-6-5-6-5-||-5-------5-5--5-6-5-6-5-|
A|------------------------||------------------------|
E|------------------------||------------------------|
   G                        Cm Cm Cm
e|------------------------||------------------------|
B|---6--------------------||------------------------|
G|-----7-7----------------||-5-5-5------------------|
D|-5-------5-5--5-6-5-6-5-||------------------------|
A|------------------------||------------------------|
E|------------------------||------------------------|

     G 
III. Я пою (Понятно!), а ребята играют (Понятно!).
     Cm
     Не попадаем мы друг в друга - бывает! (Понятно!)
     G  
     Пускай в нашей музыке много изъян... (Давай! Давай! Давай!)
     Cm
     Давай салягу! Давай, Костян! (Давай! Давай! Давай!)

Guitar Solo:
e|------------------------||------------------------|
B|------------------------||------------------------|
G|---7-4-4----------------||---7-4-4----------------|
D|-5-------5-5--5-6-5-6-5-||-5-------5-5--5-6-5-6-5-|
A|------------------------||------------------------|
E|------------------------||------------------------|

e|------------------------||------------------------|
B|---6--------------------||------------------------|
G|-----7-7----------------||-5-5-5------------------|
D|-5-------5-5--5-6-5-6-5-||------------------------|
A|------------------------||------------------------|
E|------------------------||------------------------|
  ...Magic people! ...Voodoo people!

И заново Intro:
   G                         Cm
e|------------------------||------------------------|
B|------------------------||------------------------|
G|---7-4-4----------------||---8-5-5----------------|
D|-5-------5-5--5-6-5-6-5-||-5-------5-5--5-6-5-6-5-|
A|------------------------||------------------------|
E|------------------------||------------------------|
   G                        Cm Cm Cm
e|------------------------||------------------------|
B|---6--------------------||------------------------|
G|-----7-7----------------||-5-5-5------------------|
D|-5-------5-5--5-6-5-6-5-||------------------------|
A|------------------------||------------------------|
E|------------------------||------------------------|

  ...Magic people! ...Voodoo people!

И заново Intro:
   G                         Cm
e|------------------------||------------------------|
B|------------------------||------------------------|
G|---7-4-4----------------||---8-5-5----------------|
D|-5-------5-5--5-6-5-6-5-||-5-------5-5--5-6-5-6-5-|
A|------------------------||------------------------|
E|------------------------||------------------------|
   G                        Cm Cm Cm
e|------------------------||------------------------|
B|---6--------------------||------------------------|
G|-----7-7----------------||-5-5-5------------------|
D|-5-------5-5--5-6-5-6-5-||------------------------|
A|------------------------||------------------------|
E|------------------------||------------------------|

Bass End:
G|-6-5-3-------------|
D|---------6-5-3--2~-|
A|-------------------|
E|-------------------|
Magic people! Voodoo people! А!

Комментарий автора

Схема аккордов: G Cm e|--3-----3--| B|--3-----4--| G|--4-----5--| D|--5-----5--| A|--5-----3--| E|--3-----3--| 

Аппликатуры аккордов

Аккорд G
Аккорд Cm

Видео Ленинград Хуямба

Ленинград популярные подборы аккордов

Название композицииПросмотров
Ленинград 875
Ленинград 684
Ленинград 591
Ленинград 463
Ленинград 444