Уважаемые пользователи, в данный момент ведутся работы по настройке мобильной версии сайта и поэтому часть функций не работает или работает не корректно.

Ленинград - Руки из карманов, аккорды

  • 8,422
  • 10
  • 30 нояб. 1999
Прокрутка
Тон-сть
Шрифт
Gm
- Руки из карманов, 
Gm
Где твой документ?
Gm
Сказал мне на Московском 
Gm
Один прохожий мент, 
Cm
А я - с баяном:
Cm
- А вот он Я!
D
- А это что?
D              Gm
- А это музыка моя!

Соло:
   Gm
e|-------------------------------------
B|-------------------------------------
G|------------------------------------- x2
D|-------------------------------------
A|-----5-3--------5-6-5------5-6-5-3-5-
E|-3-6-----6--3-6--------3-6-----------

   Cm
e|-------------------------------------
B|-------------------------------------
G|-------------------------------------
D|-----5-3--------5-6-5--5-5-5-3-------
A|-3-6-----6--3-6----------------6-5-3-
E|-------------------------------------
Бла-Бла-Бла

Gm
- Руки из карманов, 
Gm
Где твой документ?
Gm
Сказал на Ленинградском 
Gm
Один прохожий мент, 
Cm
А я - с баяном:
Cm
- А вот он Я!
D
- А это что?
D              Gm
- А это музыка моя!

Соло:
   Gm
e|-------------------------------------
B|-------------------------------------
G|------------------------------------- x2
D|-------------------------------------
A|-----5-3--------5-6-5------5-6-5-3-5-
E|-3-6-----6--3-6--------3-6-----------

   Cm
e|-------------------------------------
B|-------------------------------------
G|-------------------------------------
D|-----5-3--------5-6-5--5-5-5-3-------
A|-3-6-----6--3-6----------------6-5-3-
E|-------------------------------------

Это музыка моя!
Вот так вот!
Это музыка моя!

Аппликатуры аккордов

Аккорд Gm
Аккорд Cm
Аккорд D

Видео Ленинград Руки из карманов

Ленинград популярные подборы аккордов

Название композицииПросмотров
Ленинград 811
Ленинград 676
Ленинград 599
Ленинград 475
Ленинград 468