Уважаемые пользователи, в данный момент ведутся работы по настройке мобильной версии сайта и поэтому часть функций не работает или работает не корректно.

Ленинград - Космос, аккорды

  • 6,365
  • 2
  • 30 нояб. 1999
Прокрутка
Тон-сть
Шрифт
G                 A#
Где-то внутри, в каждом из нас
C                D
Есть необъятный космос
G                 A#
Чтобы лететь нужна ракета
C                D
Нет папирос - забивай сигареты.

Riff 1:
G|-------------------------------------|
D|-------------------------------------|
A|--------3-5--------3-5-6-5-3-6-5-3-5-|
E|-3--3-6-----3--3-6-------------------|
Космос...

G                 A#
Ты хочешь любви - на возьми, вот она
C                D
За окнами бабы, а с ними весна,
G                 A#
Но космонавты не ходят к врачу
C                D
Вы любите женщин, а я просто дрочу.

Riff 1:
G|-------------------------------------|
D|-------------------------------------|
A|--------3-5--------3-5-6-5-3-6-5-3-5-|
E|-3--3-6-----3--3-6-------------------|
Космос...

Outro:
G|----------------------------------|
D|----------------------------------|
A|------------3-3---------3---5-5-5-|
E|-3-3--3-6-3------6-6--6---6-------|

Аппликатуры аккордов

Аккорд G
Аккорд A#
Аккорд C
Аккорд D

Видео Ленинград Космос

Ленинград популярные подборы аккордов

Название композицииПросмотров
Ленинград 811
Ленинград 676
Ленинград 599
Ленинград 475
Ленинград 468