Уважаемые пользователи, в данный момент ведутся работы по настройке мобильной версии сайта и поэтому часть функций не работает или работает не корректно.

Ленинград - WWW, аккорды

  • 11,214
  • 1
  • 30 нояб. 1999
Прокрутка
Тон-сть
Шрифт
Басс (вступление и припев):
1|-------------------|
2|-------------------|
3|-3-3-3-10-1-1-1-10-|
4|-------------------|
   
Басс (проигрыш):
1|-------|
2|-------|
3|-3-3-3-|
4|-------|

Басс (куплет):
1|--------------------|
2|--------------------|
3|-3-3-3--------1-2-3-|
4|-------1-1-1--------|

Ритм (вступление и припев):
1|-х-х-|
2|-х-х-|
3|-5-3-|
4|-5-3-|
5|-3-1-|
6|-х-х-|

Ритм (проигрыш):
1|-х-|
2|-х-|
3|-5-|
4|-5-|
5|-3-|
6|-х-|

Ритм (куплет):
1|-х-х-х-х-х-|
2|-х-х-х-х-х-|
3|-5-х-3-4-5-|
4|-5-2-3-4-5-|
5|-3-2-1-2-3-|
6|-х-1-х-х-х-|

Соло (вступление и припев):
1|----------------------------|
2|----------------------------|
3|-5-5-5-12-11-12-3-3-3-8-8-7-|
4|----------------------------|
5|----------------------------|
6|----------------------------|

Соло (проигрыш):
1|---------------------------------|
2|---------------------------------|
3|-5-5-5-3-5-5-5-3-5-5-5-3-5-5-5-3-|
4|---------------------------------|
5|---------------------------------|
6|---------------------------------|

Соло (куплет):
1|------------------------------|
2|------------------------------|
3|-5-5-5-3-10-10-10-3-3-4-4-5-5-|
4|------------------------------|
5|------------------------------|
6|------------------------------|

Комментарий автора

Текст: Когда переехал - не помню, Наверное, был я бухой. Мой адрес не дом и не улица, Мой адрес сегодня такой: ВЭ-ВЭ-ВЭ ЛЕНИНГРАД ЭС-ПЭ-БЭ ТОЧКАРУ Когда тормозит меня мусор, Прописки, мол, нет никакой, То я отвечаю спокойно: "Мой адрес сегодня такой: ВЭ-ВЭ-ВЭ ЛЕНИНГРАД ЭС-ПЭ-БЭ ТОЧКАРУ Когда напиваюсь я пьяный, Тогда я мотор торможу: "Давай, шеф, поехали к дому, Дорогу сейчас покажу". ВЭ-ВЭ-ВЭ ЛЕНИНГРАД ЭС-ПЭ-БЭ ТОЧКАРУ

Аппликатуры аккордов

Видео Ленинград WWW

Ленинград популярные подборы аккордов

Название композицииПросмотров
Ленинград 806
Ленинград 666
Ленинград 600
Ленинград 525
Ленинград 505