Уважаемые пользователи, в данный момент ведутся работы по настройке мобильной версии сайта и поэтому часть функций не работает или работает не корректно.

Ленинград - Без тебя пиздец, аккорды

  • 18,928
  • 10
  • 30 нояб. 1999
Прокрутка
Тон-сть
Шрифт
Вступление: x2
    Cm    A#       G#      A#         Cm     A#      G#      A#
1|---------------------------------|---------------------------------|
2|-----------6-4-6-4---4--8-6-4-0--|----------6-4-6-8---8--11-9-8-6--|
3|---5--0--3-----------------------|--5--0--3------------------------|
4|---------------------------------|---------------------------------|
5|---------------------------------|---------------------------------|
6|---------------------------------|---------------------------------|

    Cm             Cm               Cm
1|-------------------|----------------|
2|-------------------|----------------|
3|-------------------|----------------|
4|--5-5-5-5-5-5------|-5-5-5-5-5-5----|
5|-------------------|-----3---3---3--|
6|-------------------|-3-3-3-3-3-3----|

   Cm                   A#
1. У меня, как обычно - все отлично.
   G#            A#
   Мои корабли уходят в запой.
   Cm                    A#
   У тебя, как обычно - все очень цинично:
    G#               A#
   "Мол, за собой посуду помой!"
   Cm             A#
   Ну и, конечно, все эти бабы,
   G#              A#
   Которые содятся мне на конец.
   Cm             A#
   О, я еб..сь с ними со всеми,
   G#              A#
   Но без тебя пи...ц!!!

Припев:
   Cm     A#     G#   A#
   Без тебя пи...ц!!!
                     2|--4--8-6-4-0--|

   Cm     A#     G#  A#
   Без тебя пи...ц!!!
                     2|--8--11-9-8-6-|

   Cm     A#     G#  A#
   Без тебя пи...ц!!!
                     2|--4--8-6-4-0--|

   Cm     A#     G#  A#
   Без тебя пи...ц!!!
                     2|--8--11-9-8-6-|

Проигрыш: 
    Cm    A#       G#      A#         Cm     A#      G#      A#
1|---------------------------------|---------------------------------|
2|-----------6-4-6-4---4--8-6-4-0--|----------6-4-6-8---8--11-9-8-6--|
3|---5--0--3-----------------------|--5--0--3------------------------|
4|---------------------------------|---------------------------------|
5|---------------------------------|---------------------------------|
6|---------------------------------|---------------------------------|

    Cm             Cm               Cm
1|-------------------|----------------|
2|-------------------|----------------|
3|-------------------|----------------|
4|--5-5-5-5-5-5------|-5-5-5-5-5-5----|
5|-------------------|-----3---3---3--|
6|-------------------|-3-3-3-3-3-3----|

   Cm                   A#
2. Знаю, знаю ты - одна такая.
   G#            A#
   Знаю, знаю ты - одна такая,
   Cm                   A#
   Знаю, знаю ты - одна такая есть,оу ес!!!
   G#            A#
   Знаю, знаю ты - одна такая.
   Cm                   A#
   Знаю, знаю ты - одна такая,
   G#            A#
   Знаю, знаю ты - одна такая
   G#            A#
   Знаю, знаю без тебя пи...ц!!!
 
Припев:
   Cm     A#     G#   A#
   Без тебя пи...ц!!!
                     2|--4--8-6-4-0--|

   Cm     A#     G#  A#
   Без тебя пи...ц!!!
                     2|--8--11-9-8-6-|

   Cm     A#     G#  A#
   Без тебя пи...ц!!!
                     2|--4--8-6-4-0--|

   Cm     A#     G#  A#
   Без тебя пи...ц!!!
                     2|--8--11-9-8-6-|

Концовка:
    Cm     A#      G#      A#        Cm     A#      G#      A#            A#       A#  Cm
1|----------------------------------------------------------------------|----------------|
2|-6-4-6-4---4--8-6-4-0-------------6-4-6-8---8--11-9-8-6-----11-9-8-6--|--11-9-8-6--13--|
3|----------------------------------------5--0--3-----------------------|--5--0--3-------|
4|----------------------------------------------------------------------|----------------|
5|----------------------------------------------------------------------|----------------|
6|----------------------------------------------------------------------|----------------|

Аппликатуры аккордов

Аккорд Cm
Аккорд A#
Аккорд G#

Видео Ленинград Без тебя пиздец

Ленинград популярные подборы аккордов

Название композицииПросмотров
Ленинград 875
Ленинград 684
Ленинград 591
Ленинград 463
Ленинград 444