Уважаемые пользователи, в данный момент ведутся работы по настройке мобильной версии сайта и поэтому часть функций не работает или работает не корректно.

Ленинград - Мне бы в небо, аккорды

  • 30,309
  • 56
  • 22 сент. 2014
Прокрутка
Тон-сть
Шрифт
Басовое интро:
  Cm        G#
e|----------------------------
B|----------------------------
G|----------------------------
D|------5-5-5-5---------------
A|-3--3---------------6-6-6-6-
E|---------------4--4---------
 
  Fm        G
e|----------------------------
B|----------------------------
G|----------------------------
D|----------------------------
A|------3-3-3-3-------5-5-5-5-
E|-1--1----------3--3---------

Рифф:
e|----------------------------
B|----------------------------
G|----------------------------
D|----------------------------
A|-3--3-3-5-6--3--3-3-5-6-----
E|----------------------------

e|----------------------------
B|----------------------------
G|----------------------------
D|----------------------------
A|-3--3-3-5-6-------8-6-5----
E|-------------4--------------

 Cm            G#
Руки, ноги дэнс, голова бум-бум-бам
Fm              G
Мои мозги похожи на кусок buble-gum
 Cm            G#
Можно же так, но лучше ускориться
Fm              G
Лично я бухаю, а кто-то колется.

 Cm            G#
Мне бы в небо, в небо, в небо.
Fm              G
Здесь я был, а там я не был.
 Cm            G#
Мне бы в небо, в небо, в небо.
Fm              G
Здесь я был, а там я не был.

Рифф:
e|----------------------------
B|----------------------------
G|----------------------------
D|----------------------------
A|-3--3-3-5-6--3--3-3-5-6-----
E|----------------------------

e|----------------------------
B|----------------------------
G|----------------------------
D|----------------------------
A|-3--3-3-5-6-------8-6-5----
E|-------------4--------------

 Cm            G#
Новые районы - дома, как коробки,
Fm              G
Хочешь жить - набивай кулаки.
 Cm            G#
Кто-то жрет таблетки, а кто-то - колется.
Fm              G
Лично я бухаю, но могу ускориться.

 Cm            G#
Мне бы в небо, в небо, в небо.
Fm              G
Здесь я был, а там я не был.
 Cm            G#
Мне бы в небо, в небо, в небо.
Fm              G
Здесь я был, а там я не был.

Рифф:
e|----------------------------
B|----------------------------
G|----------------------------
D|----------------------------
A|-3--3-3-5-6--3--3-3-5-6-----
E|----------------------------

e|----------------------------
B|----------------------------
G|----------------------------
D|----------------------------
A|-3--3-3-5-6-------8-6-5----
E|-------------4--------------

 Cm            G#
Все это похоже на какую-то разводку:
Fm              G
Наркотики - нельзя, но можно водку.
 Cm            G#
Газеты и журналы печатают муру,
Fm              G
Дельфин будет жить... А я - умру!

 Cm            G#
Мне бы в небо, в небо, в небо.
Fm              G
Здесь я был, а там я не был.
 Cm            G#
Мне бы в небо, в небо, в небо.
Fm              G
Здесь я был, а там я не был.

Рифф:
e|----------------------------
B|----------------------------
G|----------------------------
D|----------------------------
A|-3--3-3-5-6--3--3-3-5-6-----
E|----------------------------

e|----------------------------
B|----------------------------
G|----------------------------
D|----------------------------
A|-3--3-3-5-6-------8-6-5----
E|-------------4--------------

 Cm            G#
Путевка в небо выдается очень быстро
Fm              G
Вышел на улицу - случайный выстрел.
 Cm            G#
Можно ждать его, но лучше ускориться,
Fm              G
Лично я бухаю, а кто-то - колется.

 Cm            G#
Мне бы в небо, в небо, в небо.
Fm              G
Здесь я был, а там я не был.
 Cm            G#
Мне бы в небо, в небо, в небо.
Fm              G
Здесь я был, а там я не был.
 Cm            G#
Мне бы в небо, в небо, в небо.
Fm              G
Здесь я был, а там я не был.
 Cm            G#
Мне бы в небо, в небо, в небо.
Fm              G
Здесь я был, а там я не был.

Аппликатуры аккордов

Аккорд Cm
Аккорд G#
Аккорд Fm
Аккорд G

Видео Ленинград Мне бы в небо

Ленинград популярные подборы аккордов

Название композицииПросмотров
Ленинград 828
Ленинград 678
Ленинград 615
Ленинград 458
Ленинград 457