Уважаемые пользователи, в данный момент ведутся работы по настройке мобильной версии сайта и поэтому часть функций не работает или работает не корректно.

Ленинград - Зенит, аккорды

  • 6,152
  • 1
  • 26 сент. 2014
Прокрутка
Тон-сть
Шрифт
Бас-вступление:
3|---------------------------
4|---------------------------
5|-3-----3-----3-----3--023-- x2
6|----3-----3-----3----3-----

Рифф 1: x2
C G
1|---------------------------------------------
2|---1-1--1-1---3-5-3-1------1-1--1-3--5-3-1-0- 
3|---------------------------------------------
4|---------------------------------------------
5|---------------------------------------------
6|---------------------------------------------

G C
1|---------------------------------------------
2|---1-1--1-1---3-5-3-1-------3--3-5--3-1-1-1--
3|---------------------------------------------
4|---------------------------------------------
5|---------------------------------------------
6|---------------------------------------------

Зенит!
Футбол!
Зенит!
Футбол!

Рифф 2:
1|--------8---------------8---------------8---------------
2|-8-8--8------8-8-8-8--8----------8-8--8-----8-8-8-8-8-8-
3|--------------------------------------------------------
4|--------------------------------------------------------
5|--------------------------------------------------------
6|--------------------------------------------------------

Рифф 1: x2
C G
1|---------------------------------------------
2|---1-1--1-1---3-5-3-1------1-1--1-3--5-3-1-0- 
3|---------------------------------------------
4|---------------------------------------------
5|---------------------------------------------
6|---------------------------------------------

G C
1|---------------------------------------------
2|---1-1--1-1---3-5-3-1-------3--3-5--3-1-1-1--
3|---------------------------------------------
4|---------------------------------------------
5|---------------------------------------------
6|---------------------------------------------

Зенит!
Футбол!
Хоккей!
Налей!

C G
Ты и я, ты и я, любим мы футбол
(G) C
Ты кричишь, я кричу, надо-надо гол
(C) G
Ты кричишь - надо гол, я кричу - надо гол
(G) C
Стой! (стой) как его, надо-надо-надо гол!

Рифф 1: x2
C G
1|---------------------------------------------
2|---1-1--1-1---3-5-3-1------1-1--1-3--5-3-1-0- 
3|---------------------------------------------
4|---------------------------------------------
5|---------------------------------------------
6|---------------------------------------------

G C
1|---------------------------------------------
2|---1-1--1-1---3-5-3-1-------3--3-5--3-1-1-1--
3|---------------------------------------------
4|---------------------------------------------
5|---------------------------------------------
6|---------------------------------------------

Зенит!
Футбол!
Зенит!

C G
И на стадион вдвоём мы с тобой всегда идём
(G) C
Потому что ты и я - закадычные друзья
(C) G
Ты болеешь за Зенит, я болею за Зенит
(G) C
Мы болеем за Зенит и Зенит всех победит!

Рифф 1: x2
C G
1|---------------------------------------------
2|---1-1--1-1---3-5-3-1------1-1--1-3--5-3-1-0- 
3|---------------------------------------------
4|---------------------------------------------
5|---------------------------------------------
6|---------------------------------------------

G C
1|---------------------------------------------
2|---1-1--1-1---3-5-3-1-------3--3-5--3-1-1-1--
3|---------------------------------------------
4|---------------------------------------------
5|---------------------------------------------
6|---------------------------------------------

Кто болеет за Зенит у того всегда стоит!

Рифф 2:
1|--------8---------------8---------------8---------------
2|-8-8--8------8-8-8-8--8----------8-8--8-----8-8-8-8-8-8-
3|--------------------------------------------------------
4|--------------------------------------------------------
5|--------------------------------------------------------
6|--------------------------------------------------------

Аппликатуры аккордов

Аккорд C
Аккорд G

Видео Ленинград Зенит

Ленинград популярные подборы аккордов

Название композицииПросмотров
Ленинград 806
Ленинград 666
Ленинград 600
Ленинград 525
Ленинград 505