Уважаемые пользователи, в данный момент ведутся работы по настройке мобильной версии сайта и поэтому часть функций не работает или работает не корректно.

Lumen - Сид и Нэнси, аккорды

  • 73,506
  • 120
  • 13 июня 2015
Прокрутка
Тон-сть
Шрифт
Riff 1 (Acoustic Guitar):
-----------------------------------------------------------------------------
-----------------------------------------------------------------------------
-----------------------------------------------------------------------------
-----9---10-9-7-9-------7---9-7-5-7-------5---7-5-4-5-------7-5------7-5-----
-7-7---7------------5-5---5-----------3-3---3-----------3-3------5-5---------
-----------------------------------------------------------------------------
 
Riff 2 (Distorted):
---------------------------------
---------------------------------
-9-9-9-9-7-7-7-7-5-5-5-5-7-7-7-7-
-9-9-9-9-7-7-7-7-5-5-5-5-7-7-7-7-
-7-7-7-7-5-5-5-5-3-3-3-3-5-5-5-5-
---------------------------------

Solo (Distorted):
-----------------------------------------------------------------------------
-----------------------------------------------------------------------------
-----------------------------------------------------------------------------
-2/9~~~~~~--9p7--------------------2/9~~~~~~--9p7----------------------------
----------------10-9-5-5/7~~~~~~------------------10-9-5-5/7/9/10/9h10p9/10--
-----------------------------------------------------------------------------
~ - в данном случае не вибрато, а сустейн

Intro: Riff 1 }x2
       Riff 1 }x4

  Bm      A       G
  Вены дорог, дороги вен
           F#             Bm
  Машинкой размажет по кирпичности стен
  Bm      A       G
  Обломки империй, элементы систем
           F#             Bm
  И тот кто был всем, тот станет никем

  Bm      A       G
  Но мы с тобою будем вместе
           F#             Bm
  Как Сид и Нэнси, Сид и Нэнси
  Bm      A       G
  И ни за что не доживем до пенсии
           F#          Bm
  Как Сид и Нэнси, Сид и...

Riff 2 }x4
Riff 1 }x4

  Bm      A       G
  Дорожки пыли, пыль дорожек
           F#             Bm
  Белый смелый, хитрый тоже
  Bm      A       G
  Покатились глаза по бледной коже
           F#             Bm
  У меня есть ножик, где-то ножик

  Bm      A       G
  И мы с тобою станем вместе
           F#             Bm
  Как Сид и Нэнси, Сид и Нэнси
  Bm      A       G
  И ни за что не доживем до пенсии
           F#         Bm
  Мы Сид и Нэнси, Сид и...

Riff 2 }x4
Solo }x1
Riff }x4

  Bm      A       G
  Героиновый рай и они там вдвоем
           F#             Bm
  И мы, наверное, туда попадем
  Bm      A       G
  По дорогам вен, по дорожкам пыли
           F#             Bm
  Ведь мы так любили, мы были

  Bm      A       G
  Мы были с тобою всё время вместе
           F#             Bm
  Как Сид и Нэнси, Сид и Нэнси
  Bm      A       G
  И ни за что бы не дожили до пенсии
           F#          Bm
  Как Сид и Нэнси, Сид и...

Outro: Riff 2 }x4

Аппликатуры аккордов

Аккорд Bm
Аккорд A
Аккорд G
Аккорд F#

Видео Lumen Сид и Нэнси

Lumen популярные подборы аккордов

Название композицииПросмотров
Люмен 6,367
Люмен 1,837
Люмен 1,688
Люмен 1,192
Люмен 725