Уважаемые пользователи, в данный момент ведутся работы по настройке мобильной версии сайта и поэтому часть функций не работает или работает не корректно.

Несчастный Случай - Генералы песчаных карьеров, аккорды

  • 9,458
  • 9
  • 17 фев. 2015
Прокрутка
Тон-сть
Шрифт
Вступление: (4:0 4:0)
         Dm        Gm/D          Dm       Dsus2
E-------------1-3-5-3-1-0--5-1-3----1-5-3-1-----0-3-1-0-
B-3----------------3------------------------------------
G-------------------------------------------------------
D-------------------------------------------------------
A-------------------------------------------------------
E-------------------------------------------------------

Dm Gm F A7

Dm                              Gm
Я начал жизнь в трущобах городских,
  Dm            A7
И добрых слов я не слыхал. 
Dm               D D7/F#
Когда ласкали вы детей своих - 
             Gm C7     F
Я есть просил, я замерзал. 
           Dm                 Gm
Вы увидав меня не прячьте взгляд 
    A7add13-           A7   Dm Gm
Ведь я ни в чем, ни в чем не виноват. 

Dm                          Gm
За что вы бросили меня, за что? 
  Dm            A7
Где мой очаг? Где мой ночлег? 
Dm               D D7/F#
Не признаете вы мое родство, 
             Gm C7    F
А я вам брат, я человек. 
           Dm            Gm
Вы вечно молитесь своим богам, 
    A7add13-       A7   Dm
И ваши боги все прощают вам. 

Проигрыш:
Dm      Gm      F          A7              Dm
E---------------1-----------------1-3-5-3-5h1--1-3---10-----------10-8-5------5-3-1-3-1-5-
B-0h3-3h1-3--3-1-3-1-3---3----------------3-------------------10--------6---3-------------
G--------------------------------------------------------------10-12----------------------
D-----------------------------------------------------------------------------------------
A-----------------------------------------------------------------------------------------
E-----------------------------------------------------------------------------------------

Em                         Am
Край небоскребов и роскошных вилл, 
Em                 B7
Из окон льет слепящий свет. 
Em                        E E7
О, если б мне хоть раз набраться сил, 
Am D7          G
Вы б дали мне за все ответ. 
Em                        Am
Откройте двери, люди, я ваш брат
B7             B7    Em
Ведь я ни в чем, ни в чем не виноват. 

Проигрыш: 
  Em      Am         Em               B7 
E-12------12---15-15--17-15-12-10---------------------------
B------------------------------------------12-10-8-10-12-12-
G-----------------------------------------------------------
D-----------------------------------------------------------
A-----------------------------------------------------------
E-----------------------------------------------------------

Em     E      E7      Am          D7     G
E-10-12-15-12-10-12-10-12-15-12-10---16------------------------------------------------------7----
B----------------------------------------12---15-15-13-12-13-12-13-12-10-8-10-------8-10-8--------
G---------------------------------------------------------------------------------------------7-9-
D-------------------------------------------------------------------------------------------------
A-------------------------------------------------------------------------------------------------
E-------------------------------------------------------------------------------------------------

 Em            Am     B7  B7  Em
E-7-5-3-2-0-7-5----7-5-3-2-5-3-2-3-0-
B---------------------8--------------
G------------------------------------
D------------------------------------
A------------------------------------
E------------------------------------

Em                        Am
Вы знали ласки матерей родных, 
Em                 B7
А я не знал и лишь во сне,
Em                        E E7
В моих мечтаньях детских золотых
Am D7          G
Мать иногда являлась мне. 
Em                     Am
О мама если бы найти тебя, 
A7add13-      A7      Dm Gm F A7 
Была б не так горька моя судьба.

Заключение: 
      Dm           Gm               F                 A7        Dm
E------5-3-1-------------------------------1-3-5-3-1-3-5-9-5----1-------------
B-1-3-------3-1-3--------1-3-1-------3---------------------------------3------
G-----------------------0-2------2-0------------------------------------------
D----------------------------------------------------------------------0----0-
A-----------------------------------------------------------------------------
E-----------------------------------------------------------------------------

Комментарий автора

Gm/D [xx0333] D7/F# [200212] A7add13- [x02021]

Аппликатуры аккордов

Аккорд Dm
Аккорд Gm/D
Аккорд Dsus2
Аккорд Gm
Аккорд F
Аккорд A7
Аккорд D
Аккорд D7/F#
Аккорд C7
Аккорд A7add13-
Аккорд Em
Аккорд Am
Аккорд B7
Аккорд E
Аккорд E7
Аккорд D7
Аккорд G

Видео Несчастный Случай Генералы песчаных карьеров

Несчастный Случай популярные подборы аккордов

Название композицииПросмотров
Несчастный Случай 761
Несчастный Случай 458
Несчастный Случай 419
Несчастный Случай 245
Несчастный Случай 130