Уважаемые пользователи, в данный момент ведутся работы по настройке мобильной версии сайта и поэтому часть функций не работает или работает не корректно.

Океан Ельзи - Дякую тобі, аккорды

Прокрутка
Тон-сть
Шрифт
Intro:
C C
---------------------|----------------------
------1---------1----|-------1---------1----
--------0---------0--|---------0---------0--
---2------2(3h)------|----2------2(3h)------
-3-------------------|--3-------------------
---------------------|----------------------

С F C D
-----------0----------|-------------|--------------|--------2(3h)-------2------
------1---------1-----|-------1-----|--------1-----|--------------3--------3---
----------------------|-------------|--------------|-----2-----------2---------
---2----2----2-----2--|----3-----3--|-----2-----3--|--0------------------------
-3--------------------|--3----------|--3-----------|---------------------------
----------------------|-------------|--------------|---------------------------

Am Em	A D
-------------|-------------|--------------0----------|--------2(3h)-------2----
--------1----|--------0----|--------2-----------2----|--------------3-------3--
-------------|-------------|-------------------------|-----2-----------2-------
----2-----2--|----2-----2--|----2-----2-----2-----2--|--0----------------------
--0----------|--2----------|--0----------------------|-------------------------
-------------|-------------|-------------------------|-------------------------

F C	C
-------------0----------|----------------------|-------------------------------
-------1----------1-----|-------1---------1----|-------1---------1-------------
------------------------|---------0---------0--|---------0---------0-----------
----3-----3----3-----3--|----2------2(3h)------|----2------2(3h)---------------
-3----------------------|--3-------------------|--3----------------------------
------------------------|----------------------|-------------------------------

С          F            C            D
Дякую тобі, за те, що ти завжди зі мною,
Am          Em      A               D
І навіть так, як я хотів, і не без бою,
Fm                       C
Але й без непотрібних слів.

С          F            C            D
Дякую тобі, за те, що ти завжди зі мною,
Am          Em      A               D
І я живу не так як всі, як за стіною,
Fm                   C
але з любов’ю на душі.

С          F            C            D
Дякую тобі, за те, що ти завжди зі мною,
Am          Em      A           D
І може й я твоє дитя, але з тобою
Fm                   C
Я світу дам нове життя.
Fm                     C
Але з тобою я світу дам нове життя.

Комментарий автора

Играть перебором: бас-4-3-2-1-2-3-4

Аппликатуры аккордов

Аккорд C
Аккорд F
Аккорд D
Аккорд Am
Аккорд Em
Аккорд A
Аккорд Fm

Видео Океан Ельзи Дякую тобі

Океан Ельзи популярные подборы аккордов

Название композицииПросмотров
Океан Ельзи 1,702
Океан Ельзи 1,027
Океан Ельзи 934
Океан Ельзи 724
Океан Ельзи 623